  0
SECTION
  2
HEADER
  9
$ACADVER
  1
AC1018
  9
$ACADMAINTVER
 70
     0
  9
$DWGCODEPAGE
  3
ANSI_1251
  9
$INSBASE
 10
0.0
 20
0.0
 30
0.0
  9
$EXTMIN
 10
461.7322278724787
 20
-345.2532613682339
 30
0.0
  9
$EXTMAX
 10
758.7322278724787
 20
-135.2532613682339
 30
0.0
  9
$LIMMIN
 10
461.7322278724787
 20
-345.2532613682339
  9
$LIMMAX
 10
758.7322278724787
 20
-135.2532613682339
  9
$ORTHOMODE
 70
     0
  9
$REGENMODE
 70
     1
  9
$FILLMODE
 70
     1
  9
$QTEXTMODE
 70
     0
  9
$MIRRTEXT
 70
     0
  9
$LTSCALE
 40
1.0
  9
$ATTMODE
 70
     1
  9
$TEXTSIZE
 40
25.39999961853027
  9
$TRACEWID
 40
1.0
  9
$TEXTSTYLE
  7
STANDARD
  9
$CLAYER
  8
0
  9
$CELTYPE
  6
ByLayer
  9
$CECOLOR
 62
     7
  9
$CELTSCALE
 40
1.0
  9
$DISPSILH
 70
     0
  9
$DIMSCALE
 40
1.0
  9
$DIMASZ
 40
5.0
  9
$DIMEXO
 40
0.0625
  9
$DIMDLI
 40
0.375
  9
$DIMRND
 40
0.01
  9
$DIMDLE
 40
0.0
  9
$DIMEXE
 40
0.125
  9
$DIMTP
 40
0.0
  9
$DIMTM
 40
0.0
  9
$DIMTXT
 40
3.0
  9
$DIMCEN
 40
0.09
  9
$DIMTSZ
 40
0.0
  9
$DIMTOL
 70
     0
  9
$DIMLIM
 70
     0
  9
$DIMTIH
 70
     1
  9
$DIMTOH
 70
     1
  9
$DIMSE1
 70
     0
  9
$DIMSE2
 70
     0
  9
$DIMTAD
 70
     1
  9
$DIMZIN
 70
     3
  9
$DIMBLK
  1

  9
$DIMASO
 70
     1
  9
$DIMSHO
 70
     1
  9
$DIMPOST
  1
mm
  9
$DIMAPOST
  1

  9
$DIMALT
 70
     0
  9
$DIMALTD
 70
     2
  9
$DIMALTF
 40
1.0
  9
$DIMLFAC
 40
1.0
  9
$DIMTOFL
 70
     1
  9
$DIMTVP
 40
0.0
  9
$DIMTIX
 70
     0
  9
$DIMSOXD
 70
     0
  9
$DIMSAH
 70
     0
  9
$DIMBLK1
  1

  9
$DIMBLK2
  1

  9
$DIMSTYLE
  2
Standard
  9
$DIMCLRD
 70
     7
  9
$DIMCLRE
 70
     7
  9
$DIMCLRT
 70
     7
  9
$DIMTFAC
 40
1.0
  9
$DIMGAP
 40
0.0625
  9
$DIMJUST
 70
     0
  9
$DIMSD1
 70
     0
  9
$DIMSD2
 70
     0
  9
$DIMTOLJ
 70
     1
  9
$DIMTZIN
 70
     0
  9
$DIMALTZ
 70
     3
  9
$DIMALTTZ
 70
     0
  9
$DIMUPT
 70
     0
  9
$DIMDEC
 70
     2
  9
$DIMTDEC
 70
     4
  9
$DIMALTU
 70
     2
  9
$DIMALTTD
 70
     2
  9
$DIMTXSTY
  7
_TCW_TXTSTY_1
  9
$DIMAUNIT
 70
     0
  9
$DIMADEC
 70
     2
  9
$DIMALTRND
 40
0.01
  9
$DIMAZIN
 70
     0
  9
$DIMDSEP
 70
    46
  9
$DIMATFIT
 70
     3
  9
$DIMFRAC
 70
     0
  9
$DIMLDRBLK
  1

  9
$DIMLUNIT
 70
     2
  9
$DIMLWD
 70
    -2
  9
$DIMLWE
 70
    -2
  9
$DIMTMOVE
 70
     0
  9
$LUNITS
 70
     2
  9
$LUPREC
 70
     2
  9
$SKETCHINC
 40
1.0
  9
$FILLETRAD
 40
1.0
  9
$AUNITS
 70
     0
  9
$AUPREC
 70
     2
  9
$MENU
  1
.
  9
$ELEVATION
 40
0.0
  9
$PELEVATION
 40
0.0
  9
$THICKNESS
 40
0.0
  9
$LIMCHECK
 70
     0
  9
$CHAMFERA
 40
0.5
  9
$CHAMFERB
 40
0.5
  9
$CHAMFERC
 40
1.0
  9
$CHAMFERD
 40
0.0
  9
$SKPOLY
 70
     0
  9
$TDCREATE
 40
2454504.373905162
  9
$TDUCREATE
 40
2454504.332238495
  9
$TDUPDATE
 40
2454504.373905174
  9
$TDUUPDATE
 40
2454504.332238507
  9
$TDINDWG
 40
0.0
  9
$TDUSRTIMER
 40
0.0
  9
$USRTIMER
 70
     1
  9
$ANGBASE
 50
0.0
  9
$ANGDIR
 70
     0
  9
$PDMODE
 70
     0
  9
$PDSIZE
 40
0.0
  9
$PLINEWID
 40
0.0
  9
$SPLFRAME
 70
     0
  9
$SPLINETYPE
 70
     6
  9
$SPLINESEGS
 70
    20
  9
$HANDSEED
  5
F1
  9
$SURFTAB1
 70
     6
  9
$SURFTAB2
 70
     6
  9
$SURFTYPE
 70
     6
  9
$SURFU
 70
     6
  9
$SURFV
 70
     6
  9
$UCSBASE
  2

  9
$UCSNAME
  2

  9
$UCSORG
 10
0.0
 20
0.0
 30
0.0
  9
$UCSXDIR
 10
1.0
 20
0.0
 30
0.0
  9
$UCSYDIR
 10
0.0
 20
1.0
 30
0.0
  9
$UCSORTHOREF
  2

  9
$UCSORTHOVIEW
 70
     0
  9
$UCSORGTOP
 10
0.0
 20
0.0
 30
0.0
  9
$UCSORGBOTTOM
 10
0.0
 20
0.0
 30
0.0
  9
$UCSORGLEFT
 10
0.0
 20
0.0
 30
0.0
  9
$UCSORGRIGHT
 10
0.0
 20
0.0
 30
0.0
  9
$UCSORGFRONT
 10
0.0
 20
0.0
 30
0.0
  9
$UCSORGBACK
 10
0.0
 20
0.0
 30
0.0
  9
$PUCSBASE
  2

  9
$PUCSNAME
  2

  9
$PUCSORG
 10
0.0
 20
0.0
 30
0.0
  9
$PUCSXDIR
 10
1.0
 20
0.0
 30
0.0
  9
$PUCSYDIR
 10
0.0
 20
1.0
 30
0.0
  9
$PUCSORTHOREF
  2

  9
$PUCSORTHOVIEW
 70
     0
  9
$PUCSORGTOP
 10
0.0
 20
0.0
 30
0.0
  9
$PUCSORGBOTTOM
 10
0.0
 20
0.0
 30
0.0
  9
$PUCSORGLEFT
 10
0.0
 20
0.0
 30
0.0
  9
$PUCSORGRIGHT
 10
0.0
 20
0.0
 30
0.0
  9
$PUCSORGFRONT
 10
0.0
 20
0.0
 30
0.0
  9
$PUCSORGBACK
 10
0.0
 20
0.0
 30
0.0
  9
$USERI1
 70
     0
  9
$USERI2
 70
     0
  9
$USERI3
 70
     0
  9
$USERI4
 70
     0
  9
$USERI5
 70
     0
  9
$USERR1
 40
0.0
  9
$USERR2
 40
0.0
  9
$USERR3
 40
0.0
  9
$USERR4
 40
0.0
  9
$USERR5
 40
0.0
  9
$WORLDVIEW
 70
     1
  9
$SHADEDGE
 70
     3
  9
$SHADEDIF
 70
    70
  9
$TILEMODE
 70
     1
  9
$MAXACTVP
 70
    64
  9
$PINSBASE
 10
0.0
 20
0.0
 30
0.0
  9
$PLIMCHECK
 70
     0
  9
$PEXTMIN
 10
0.0
 20
0.0
 30
0.0
  9
$PEXTMAX
 10
297.0
 20
210.0
 30
0.0
  9
$PLIMMIN
 10
0.0
 20
0.0
  9
$PLIMMAX
 10
297.0
 20
210.0
  9
$UNITMODE
 70
     0
  9
$VISRETAIN
 70
     1
  9
$PLINEGEN
 70
     0
  9
$PSLTSCALE
 70
     1
  9
$TREEDEPTH
 70
  3020
  9
$CMLSTYLE
  2
Standard
  9
$CMLJUST
 70
     0
  9
$CMLSCALE
 40
1.0
  9
$PROXYGRAPHICS
 70
     1
  9
$MEASUREMENT
 70
     0
  9
$CELWEIGHT
370
    -1
  9
$ENDCAPS
280
     0
  9
$JOINSTYLE
280
     0
  9
$LWDISPLAY
290
     0
  9
$INSUNITS
 70
     1
  9
$HYPERLINKBASE
  1

  9
$STYLESHEET
  1

  9
$XEDIT
290
     1
  9
$CEPSNTYPE
380
     0
  9
$PSTYLEMODE
290
     1
  9
$FINGERPRINTGUID
  2
{F0E7E6B5-8D55-4BCA-8E96-721DEC008A9D}
  9
$VERSIONGUID
  2
{FAEB1C32-E019-11D5-929B-00C0DF256EC4}
  9
$EXTNAMES
290
     1
  9
$PSVPSCALE
 40
0.0
  9
$OLESTARTUP
290
     0
  9
$SORTENTS
280
   127
  9
$INDEXCTL
280
     0
  9
$HIDETEXT
280
     1
  9
$XCLIPFRAME
290
     0
  9
$HALOGAP
280
     0
  9
$OBSCOLOR
 70
   257
  9
$OBSLTYPE
280
     0
  9
$INTERSECTIONDISPLAY
280
     0
  9
$INTERSECTIONCOLOR
 70
   257
  9
$DIMASSOC
280
     2
  9
$PROJECTNAME
  1

  0
ENDSEC
  0
SECTION
  2
CLASSES
  0
CLASS
  1
ACDBDICTIONARYWDFLT
  2
AcDbDictionaryWithDefault
  3
ObjectDBX Classes
 90
        0
 91
        3
280
     0
281
     0
  0
ENDSEC
  0
SECTION
  2
TABLES
  0
TABLE
  2
VPORT
  5
8
330
0
100
AcDbSymbolTable
 70
     1
  0
VPORT
  5
29
330
8
100
AcDbSymbolTableRecord
100
AcDbViewportTableRecord
  2
*Active
 70
     0
 10
0.0
 20
0.0
 11
1.0
 21
1.0
 12
-0.0000000000000568
 22
0.0
 13
0.0
 23
0.0
 14
5.0
 24
5.0
 15
5.0
 25
5.0
 16
0.0
 26
0.0
 36
1.0
 17
610.2322278724787
 27
-240.2532613682339
 37
0.0
 40
167.6613869346963
 41
1.519083969465649
 42
50.0
 43
0.0
 44
0.0
 50
0.0
 51
0.0
 71
     0
 72
   100
 73
     1
 74
     3
 75
     0
 76
     1
 77
     0
 78
     0
281
     0
 65
     1
110
0.0
120
0.0
130
0.0
111
1.0
121
0.0
131
0.0
112
0.0
122
1.0
132
0.0
 79
     0
146
0.0
  0
ENDTAB
  0
TABLE
  2
LTYPE
  5
5
330
0
100
AcDbSymbolTable
 70
    13
  0
LTYPE
  5
14
330
5
100
AcDbSymbolTableRecord
100
AcDbLinetypeTableRecord
  2
ByBlock
 70
     0
  3

 72
    65
 73
     0
 40
0.0
  0
LTYPE
  5
15
330
5
100
AcDbSymbolTableRecord
100
AcDbLinetypeTableRecord
  2
ByLayer
 70
     0
  3

 72
    65
 73
     0
 40
0.0
  0
LTYPE
  5
16
330
5
100
AcDbSymbolTableRecord
100
AcDbLinetypeTableRecord
  2
Continuous
 70
     0
  3
Solid line
 72
    65
 73
     0
 40
0.0
  0
LTYPE
  5
2B
330
5
100
AcDbSymbolTableRecord
100
AcDbLinetypeTableRecord
  2
BORDER
 70
     0
  3
BORDER
 72
    65
 73
     6
 40
1.75
 49
0.5
 74
     0
 49
-0.25
 74
     0
 49
0.5
 74
     0
 49
-0.25
 74
     0
 49
0.0
 74
     0
 49
-0.25
 74
     0
  0
LTYPE
  5
2C
330
5
100
AcDbSymbolTableRecord
100
AcDbLinetypeTableRecord
  2
CENTER
 70
     0
  3
CENTER
 72
    65
 73
     4
 40
2.0
 49
1.25
 74
     0
 49
-0.25
 74
     0
 49
0.25
 74
     0
 49
-0.25
 74
     0
  0
LTYPE
  5
2D
330
5
100
AcDbSymbolTableRecord
100
AcDbLinetypeTableRecord
  2
DASHDOT
 70
     0
  3
DASHDOT
 72
    65
 73
     4
 40
1.0
 49
0.5
 74
     0
 49
-0.25
 74
     0
 49
0.0
 74
     0
 49
-0.25
 74
     0
  0
LTYPE
  5
2E
330
5
100
AcDbSymbolTableRecord
100
AcDbLinetypeTableRecord
  2
DASHED
 70
     0
  3
DASHED
 72
    65
 73
     2
 40
0.75
 49
0.5
 74
     0
 49
-0.25
 74
     0
  0
LTYPE
  5
2F
330
5
100
AcDbSymbolTableRecord
100
AcDbLinetypeTableRecord
  2
DIVIDE
 70
     0
  3
DIVIDE
 72
    65
 73
     6
 40
1.25
 49
0.5
 74
     0
 49
-0.25
 74
     0
 49
0.0
 74
     0
 49
-0.25
 74
     0
 49
0.0
 74
     0
 49
-0.25
 74
     0
  0
LTYPE
  5
30
330
5
100
AcDbSymbolTableRecord
100
AcDbLinetypeTableRecord
  2
DOT
 70
     0
  3
DOT
 72
    65
 73
     2
 40
0.25
 49
0.0
 74
     0
 49
-0.25
 74
     0
  0
LTYPE
  5
31
330
5
100
AcDbSymbolTableRecord
100
AcDbLinetypeTableRecord
  2
HIDDEN
 70
     0
  3
HIDDEN
 72
    65
 73
     2
 40
0.375
 49
0.25
 74
     0
 49
-0.125
 74
     0
  0
LTYPE
  5
32
330
5
100
AcDbSymbolTableRecord
100
AcDbLinetypeTableRecord
  2
PHANTOM
 70
     0
  3
PHANTOM
 72
    65
 73
     6
 40
2.5
 49
1.25
 74
     0
 49
-0.25
 74
     0
 49
0.25
 74
     0
 49
-0.25
 74
     0
 49
0.25
 74
     0
 49
-0.25
 74
     0
  0
LTYPE
  5
33
330
5
100
AcDbSymbolTableRecord
100
AcDbLinetypeTableRecord
  2
$INVISIBLE
 70
     0
  3
$INVISIBLE
 72
    65
 73
     2
 40
200.0
 49
-100.0
 74
     0
 49
-100.0
 74
     0
  0
LTYPE
  5
34
330
5
100
AcDbSymbolTableRecord
100
AcDbLinetypeTableRecord
  2
$AUXILIARY
 70
     0
  3
$AUXILIARY
 72
    65
 73
     2
 40
0.1000000014901161
 49
0.0500000007450581
 74
     0
 49
-0.0500000007450581
 74
     0
  0
LTYPE
  5
35
330
5
100
AcDbSymbolTableRecord
100
AcDbLinetypeTableRecord
  2
$CONSTRUCTION
 70
     0
  3
$CONSTRUCTION
 72
    65
 73
     4
 40
0.3
 49
0.2
 74
     0
 49
-0.05
 74
     0
 49
0.0
 74
     0
 49
-0.05
 74
     0
  0
LTYPE
  5
36
330
5
100
AcDbSymbolTableRecord
100
AcDbLinetypeTableRecord
  2
$SNAPEXT
 70
     0
  3
$SNAPEXT
 72
    65
 73
     2
 40
0.04
 49
0.02
 74
     0
 49
-0.02
 74
     0
  0
ENDTAB
  0
TABLE
  2
LAYER
  5
2
330
0
100
AcDbSymbolTable
 70
     1
  0
LAYER
  5
10
330
2
100
AcDbSymbolTableRecord
100
AcDbLayerTableRecord
  2
0
 70
     0
 62
     7
  6
Continuous
370
     0
390
F
1001
TCAD
1000
TCW_LAYER_ORDER
1002
{
1071
        0
1002
}
  0
ENDTAB
  0
TABLE
  2
STYLE
  5
3
330
0
100
AcDbSymbolTable
 70
    24
  0
STYLE
  5
11
330
3
100
AcDbSymbolTableRecord
100
AcDbTextStyleTableRecord
  2
STANDARD
 70
     0
 40
0.0
 41
1.0
 50
0.0
 71
     0
 42
15.23999977111816
  3
txt
  4

1001
ACAD
1000
Times New Roman Baltic
1071
    47650
  0
STYLE
  5
38
330
3
100
AcDbSymbolTableRecord
100
AcDbTextStyleTableRecord
  2
_TCW_TXTSTY_1
 70
     0
 40
0.0
 41
1.0
 50
0.0
 71
     0
 42
0.6000000238418579
  3

  4

1001
ACAD
1000
Times New Roman
1071
      290
  0
STYLE
  5
54
330
3
100
AcDbSymbolTableRecord
100
AcDbTextStyleTableRecord
  2
_TCW_TXTSTY_2
 70
     0
 40
0.0
 41
1.0
 50
0.0
 71
     0
 42
2.604514837265015
  3
TIMES.TTF
  4

1001
ACAD
1000
Times New Roman Baltic
1071
    47650
  0
STYLE
  5
56
330
3
100
AcDbSymbolTableRecord
100
AcDbTextStyleTableRecord
  2
_TCW_TXTSTY_3
 70
     0
 40
0.0
 41
1.0
 50
0.0
 71
     0
 42
2.604514837265015
  3
TIMES.TTF
  4

1001
ACAD
1000
Times New Roman Baltic
1071
    47650
  0
STYLE
  5
62
330
3
100
AcDbSymbolTableRecord
100
AcDbTextStyleTableRecord
  2
_TCW_TXTSTY_4
 70
     0
 40
0.0
 41
1.0
 50
0.0
 71
     0
 42
2.604514837265015
  3
TIMES.TTF
  4

1001
ACAD
1000
Times New Roman Baltic
1071
    47650
  0
STYLE
  5
64
330
3
100
AcDbSymbolTableRecord
100
AcDbTextStyleTableRecord
  2
_TCW_TXTSTY_5
 70
     0
 40
0.0
 41
1.0
 50
0.0
 71
     0
 42
2.604514837265015
  3
TIMES.TTF
  4

1001
ACAD
1000
Times New Roman Baltic
1071
    47650
  0
STYLE
  5
76
330
3
100
AcDbSymbolTableRecord
100
AcDbTextStyleTableRecord
  2
_TCW_TXTSTY_6
 70
     0
 40
0.0
 41
1.0
 50
0.0
 71
     0
 42
2.604514837265015
  3
TIMES.TTF
  4

1001
ACAD
1000
Times New Roman Baltic
1071
    47650
  0
STYLE
  5
78
330
3
100
AcDbSymbolTableRecord
100
AcDbTextStyleTableRecord
  2
_TCW_TXTSTY_7
 70
     0
 40
0.0
 41
1.0
 50
0.0
 71
     0
 42
2.604514837265015
  3
TIMES.TTF
  4

1001
ACAD
1000
Times New Roman Baltic
1071
    47650
  0
STYLE
  5
7F
330
3
100
AcDbSymbolTableRecord
100
AcDbTextStyleTableRecord
  2
_TCW_TXTSTY_8
 70
     0
 40
0.0
 41
1.0
 50
0.0
 71
     0
 42
2.604514837265015
  3
TIMES.TTF
  4

1001
ACAD
1000
Times New Roman Baltic
1071
    47650
  0
STYLE
  5
81
330
3
100
AcDbSymbolTableRecord
100
AcDbTextStyleTableRecord
  2
_TCW_TXTSTY_9
 70
     0
 40
0.0
 41
1.0
 50
0.0
 71
     0
 42
2.604514837265015
  3
TIMES.TTF
  4

1001
ACAD
1000
Times New Roman Baltic
1071
    47650
  0
STYLE
  5
95
330
3
100
AcDbSymbolTableRecord
100
AcDbTextStyleTableRecord
  2
_TCW_TXTSTY_A
 70
     0
 40
0.0
 41
1.0
 50
0.0
 71
     0
 42
2.604514837265015
  3
TIMES.TTF
  4

1001
ACAD
1000
Times New Roman Baltic
1071
    47650
  0
STYLE
  5
97
330
3
100
AcDbSymbolTableRecord
100
AcDbTextStyleTableRecord
  2
_TCW_TXTSTY_B
 70
     0
 40
0.0
 41
1.0
 50
0.0
 71
     0
 42
2.604514837265015
  3
TIMES.TTF
  4

1001
ACAD
1000
Times New Roman Baltic
1071
    47650
  0
STYLE
  5
A3
330
3
100
AcDbSymbolTableRecord
100
AcDbTextStyleTableRecord
  2
_TCW_TXTSTY_C
 70
     0
 40
0.0
 41
1.0
 50
0.0
 71
     0
 42
2.604514837265015
  3
TIMES.TTF
  4

1001
ACAD
1000
Times New Roman Baltic
1071
    47650
  0
STYLE
  5
A5
330
3
100
AcDbSymbolTableRecord
100
AcDbTextStyleTableRecord
  2
_TCW_TXTSTY_D
 70
     0
 40
0.0
 41
1.0
 50
0.0
 71
     0
 42
2.604514837265015
  3
TIMES.TTF
  4

1001
ACAD
1000
Times New Roman Baltic
1071
    47650
  0
STYLE
  5
A8
330
3
100
AcDbSymbolTableRecord
100
AcDbTextStyleTableRecord
  2
_TCW_TXTSTY_E
 70
     0
 40
0.0
 41
1.0
 50
0.0
 71
     0
 42
2.604514837265015
  3
TIMES.TTF
  4

1001
ACAD
1000
Times New Roman Baltic
1071
    47650
  0
STYLE
  5
AA
330
3
100
AcDbSymbolTableRecord
100
AcDbTextStyleTableRecord
  2
_TCW_TXTSTY_F
 70
     0
 40
0.0
 41
1.0
 50
0.0
 71
     0
 42
2.604514837265015
  3
TIMES.TTF
  4

1001
ACAD
1000
Times New Roman Baltic
1071
    47650
  0
STYLE
  5
BD
330
3
100
AcDbSymbolTableRecord
100
AcDbTextStyleTableRecord
  2
_TCW_TXTSTY_10
 70
     0
 40
0.0
 41
1.0
 50
0.0
 71
     0
 42
2.604514837265015
  3
TIMES.TTF
  4

1001
ACAD
1000
Times New Roman Baltic
1071
    47650
  0
STYLE
  5
C4
330
3
100
AcDbSymbolTableRecord
100
AcDbTextStyleTableRecord
  2
_TCW_TXTSTY_11
 70
     0
 40
0.0
 41
1.0
 50
0.0
 71
     0
 42
2.604514837265015
  3
TIMES.TTF
  4

1001
ACAD
1000
Times New Roman Baltic
1071
    47650
  0
STYLE
  5
C6
330
3
100
AcDbSymbolTableRecord
100
AcDbTextStyleTableRecord
  2
_TCW_TXTSTY_12
 70
     0
 40
0.0
 41
1.0
 50
0.0
 71
     0
 42
2.604514837265015
  3
TIMES.TTF
  4

1001
ACAD
1000
Times New Roman Baltic
1071
    47650
  0
STYLE
  5
DA
330
3
100
AcDbSymbolTableRecord
100
AcDbTextStyleTableRecord
  2
_TCW_TXTSTY_13
 70
     0
 40
0.0
 41
1.0
 50
0.0
 71
     0
 42
2.604514837265015
  3
TIMES.TTF
  4

1001
ACAD
1000
Times New Roman Baltic
1071
    47650
  0
STYLE
  5
DC
330
3
100
AcDbSymbolTableRecord
100
AcDbTextStyleTableRecord
  2
_TCW_TXTSTY_14
 70
     0
 40
0.0
 41
1.0
 50
0.0
 71
     0
 42
2.604514837265015
  3
TIMES.TTF
  4

1001
ACAD
1000
Times New Roman Baltic
1071
    47650
  0
STYLE
  5
E8
330
3
100
AcDbSymbolTableRecord
100
AcDbTextStyleTableRecord
  2
_TCW_TXTSTY_15
 70
     0
 40
0.0
 41
1.0
 50
0.0
 71
     0
 42
2.604514837265015
  3
TIMES.TTF
  4

1001
ACAD
1000
Times New Roman Baltic
1071
    47650
  0
STYLE
  5
EA
330
3
100
AcDbSymbolTableRecord
100
AcDbTextStyleTableRecord
  2
_TCW_TXTSTY_16
 70
     0
 40
0.0
 41
1.0
 50
0.0
 71
     0
 42
2.604514837265015
  3
TIMES.TTF
  4

1001
ACAD
1000
Times New Roman Baltic
1071
    47650
  0
STYLE
  5
ED
330
3
100
AcDbSymbolTableRecord
100
AcDbTextStyleTableRecord
  2
_TCW_TXTSTY_17
 70
     0
 40
0.0
 41
1.0
 50
0.0
 71
     0
 42
2.604514837265015
  3
TIMES.TTF
  4

1001
ACAD
1000
Times New Roman Baltic
1071
    47650
  0
ENDTAB
  0
TABLE
  2
VIEW
  5
6
330
0
100
AcDbSymbolTable
 70
     1
  0
VIEW
  5
37
330
6
100
AcDbSymbolTableRecord
100
AcDbViewTableRecord
  2
View_0
 70
     0
 40
210.0
 10
148.5
 20
105.0
 41
297.0
 11
0.0
 21
0.0
 31
1.0
 12
0.0
 22
0.0
 32
0.0
 42
50.0
 43
0.0
 44
0.0
 50
0.0
 71
     0
281
     0
 72
     0
  0
ENDTAB
  0
TABLE
  2
UCS
  5
7
330
0
100
AcDbSymbolTable
 70
     0
  0
ENDTAB
  0
TABLE
  2
APPID
  5
9
330
0
100
AcDbSymbolTable
 70
     2
  0
APPID
  5
12
330
9
100
AcDbSymbolTableRecord
100
AcDbRegAppTableRecord
  2
ACAD
 70
     0
  0
APPID
  5
2A
330
9
100
AcDbSymbolTableRecord
100
AcDbRegAppTableRecord
  2
TCAD
 70
     0
  0
ENDTAB
  0
TABLE
  2
DIMSTYLE
  5
A
330
0
100
AcDbSymbolTable
 70
     1
100
AcDbDimStyleTable
  0
DIMSTYLE
105
27
330
A
100
AcDbSymbolTableRecord
100
AcDbDimStyleTableRecord
  2
Standard
 70
     0
  3
mm
 41
5.0
 43
0.375
 44
0.125
 45
0.01
 77
     1
 78
     3
140
3.0
143
1.0
147
0.0625
148
0.01
172
     1
176
     7
177
     7
178
     7
179
     2
271
     2
285
     3
340
38
  0
ENDTAB
  0
TABLE
  2
BLOCK_RECORD
  5
1
330
0
100
AcDbSymbolTable
 70
    16
  0
BLOCK_RECORD
  5
1F
330
1
100
AcDbSymbolTableRecord
100
AcDbBlockTableRecord
  2
*Model_Space
340
22
  0
BLOCK_RECORD
  5
1B
330
1
100
AcDbSymbolTableRecord
100
AcDbBlockTableRecord
  2
*Paper_Space
340
1E
  0
BLOCK_RECORD
  5
3A
330
1
100
AcDbSymbolTableRecord
100
AcDbBlockTableRecord
  2
*E1
340
0
102
{BLKREFS
331
3E
102
}
  0
BLOCK_RECORD
  5
40
330
1
100
AcDbSymbolTableRecord
100
AcDbBlockTableRecord
  2
*E2
340
0
102
{BLKREFS
331
44
102
}
  0
BLOCK_RECORD
  5
47
330
1
100
AcDbSymbolTableRecord
100
AcDbBlockTableRecord
  2
*E3
340
0
102
{BLKREFS
331
4B
102
}
  0
BLOCK_RECORD
  5
4C
330
1
100
AcDbSymbolTableRecord
100
AcDbBlockTableRecord
  2
*E4
340
0
102
{BLKREFS
331
50
102
}
  0
BLOCK_RECORD
  5
5B
330
1
100
AcDbSymbolTableRecord
100
AcDbBlockTableRecord
  2
*E5
340
0
102
{BLKREFS
331
5F
102
}
  0
BLOCK_RECORD
  5
68
330
1
100
AcDbSymbolTableRecord
100
AcDbBlockTableRecord
  2
*E6
340
0
102
{BLKREFS
331
6C
102
}
  0
BLOCK_RECORD
  5
6F
330
1
100
AcDbSymbolTableRecord
100
AcDbBlockTableRecord
  2
*E7
340
0
102
{BLKREFS
331
73
102
}
  0
BLOCK_RECORD
  5
85
330
1
100
AcDbSymbolTableRecord
100
AcDbBlockTableRecord
  2
*E8
340
0
102
{BLKREFS
331
89
102
}
  0
BLOCK_RECORD
  5
8D
330
1
100
AcDbSymbolTableRecord
100
AcDbBlockTableRecord
  2
*E9
340
0
102
{BLKREFS
331
91
102
}
  0
BLOCK_RECORD
  5
9C
330
1
100
AcDbSymbolTableRecord
100
AcDbBlockTableRecord
  2
*E10
340
0
102
{BLKREFS
331
A0
102
}
  0
BLOCK_RECORD
  5
AE
330
1
100
AcDbSymbolTableRecord
100
AcDbBlockTableRecord
  2
*E11
340
0
102
{BLKREFS
331
B2
102
}
  0
BLOCK_RECORD
  5
B5
330
1
100
AcDbSymbolTableRecord
100
AcDbBlockTableRecord
  2
*E12
340
0
102
{BLKREFS
331
B9
102
}
  0
BLOCK_RECORD
  5
CA
330
1
100
AcDbSymbolTableRecord
100
AcDbBlockTableRecord
  2
*E13
340
0
102
{BLKREFS
331
CE
102
}
  0
BLOCK_RECORD
  5
D2
330
1
100
AcDbSymbolTableRecord
100
AcDbBlockTableRecord
  2
*E14
340
0
102
{BLKREFS
331
D6
102
}
  0
BLOCK_RECORD
  5
E1
330
1
100
AcDbSymbolTableRecord
100
AcDbBlockTableRecord
  2
*E15
340
0
102
{BLKREFS
331
E5
102
}
  0
ENDTAB
  0
ENDSEC
  0
SECTION
  2
BLOCKS
  0
BLOCK
  5
20
330
1F
100
AcDbEntity
  8
0
100
AcDbBlockBegin
  2
*Model_Space
 70
     0
 71
     0
 10
0.0
 20
0.0
 30
0.0
  3
*Model_Space
  1

  0
ENDBLK
  5
21
330
1F
100
AcDbEntity
  8
0
100
AcDbBlockEnd
  0
BLOCK
  5
1C
330
1B
100
AcDbEntity
 67
     1
  8
0
100
AcDbBlockBegin
  2
*Paper_Space
 70
     0
 71
     0
 10
0.0
 20
0.0
 30
0.0
  3
*Paper_Space
  1

  0
ENDBLK
  5
1D
330
1B
100
AcDbEntity
 67
     1
  8
0
100
AcDbBlockEnd
  0
BLOCK
  5
3C
330
3A
100
AcDbEntity
  8
0
100
AcDbBlockBegin
  2
*E1
 70
     1
 71
     0
 10
0.0
 20
0.0
 30
0.0
  3
*E1
  1

  0
LWPOLYLINE
  5
3B
330
3A
100
AcDbEntity
  8
0
  6
Continuous
 62
     7
370
     0
100
AcDbPolyline
 90
      324
 70
   128
 43
0.0
 10
530.0522622705769
 20
-183.1621879735798
 10
530.0245285616875
 20
-182.9737281400285
 10
530.0165916190565
 20
-182.7888413314219
 10
530.0273986095611
 20
-182.6073317469443
 10
530.0558967000794
 20
-182.4290035857801
 10
530.1010330574883
 20
-182.2536610471135
 10
530.1617548486649
 20
-182.0811083301288
 10
530.2370092404872
 20
-181.9111496340103
 10
530.3257433998323
 20
-181.7435891579422
 10
530.4269044935777
 20
-181.578231101109
 10
530.5394396886005
 20
-181.4148796626948
 10
530.6622961517785
 20
-181.2533390418839
 10
530.7944210499888
 20
-181.0934134378608
 10
530.934761550109
 20
-180.9349070498095
 10
531.0822648190165
 20
-180.7776240769145
 10
531.2358780235884
 20
-180.62136871836
 10
531.3945483307023
 20
-180.4659451733302
 10
531.5572229072355
 20
-180.3111576410095
 10
531.7228489200656
 20
-180.1568103205823
 10
531.8903735360698
 20
-180.0027074112326
 10
531.9853457780554
 20
-179.9154993459849
 10
532.0802699275637
 20
-179.8280893567648
 10
532.1752272551996
 20
-179.7405976522812
 10
532.2702990315676
 20
-179.6531444412432
 10
532.3655665272724
 20
-179.5658499323596
 10
532.4611110129182
 20
-179.4788343343395
 10
532.55701375911
 20
-179.3922178558918
 10
532.6533560364524
 20
-179.3061207057255
 10
532.75021911555
 20
-179.2206630925496
 10
532.847684267007
 20
-179.135965225073
 10
532.9458327614285
 20
-179.0521473120046
 10
533.044745869419
 20
-178.9693295620536
 10
533.144504861583
 20
-178.8876321839288
 10
533.2451910085252
 20
-178.8071753863391
 10
533.3468855808501
 20
-178.7280793779937
 10
533.4496698491625
 20
-178.6504643676013
 10
533.5536250840668
 20
-178.574450563871
 10
533.6588325561677
 20
-178.5001581755118
 10
533.7653735360698
 20
-178.4277074112326
 10
533.9557192902628
 20
-178.3018930692859
 10
534.147046149645
 20
-178.1775497454639
 10
534.3393186773567
 20
-178.0546402141709
 10
534.5325014365385
 20
-177.9331272498112
 10
534.7265589903305
 20
-177.8129736267889
 10
534.921455901873
 20
-177.694142119508
 10
535.1171567343063
 20
-177.5765955023728
 10
535.3136260507708
 20
-177.4602965497876
 10
535.510828414407
 20
-177.3452080361564
 10
535.7087283883548
 20
-177.2312927358833
 10
535.9072905357548
 20
-177.1185134233726
 10
536.1064794197473
 20
-177.0068328730285
 10
536.3062596034724
 20
-176.896213859255
 10
536.5065956500708
 20
-176.7866191564565
 10
536.7074521226825
 20
-176.6780115390369
 10
536.908793584448
 20
-176.5703537814006
 10
537.1105845985074
 20
-176.4636086579517
 10
537.3127897280013
 20
-176.3577389430943
 10
537.5153735360698
 20
-176.2527074112326
 10
537.7081338222567
 20
-176.1538998239636
 10
537.9014500746508
 20
-176.0561205988364
 10
538.0953145371543
 20
-175.9593764378446
 10
538.2897194536694
 20
-175.8636740429819
 10
538.4846570680976
 20
-175.7690201162421
 10
538.6801196243409
 20
-175.6754213596187
 10
538.8760993663013
 20
-175.5828844751054
 10
539.072588537881
 20
-175.491416164696
 10
539.2695793829816
 20
-175.401023130384
 10
539.4670641455051
 20
-175.3117120741632
 10
539.6650350693535
 20
-175.2234896980271
 10
539.8634843984288
 20
-175.1363627039696
 10
540.0624043766329
 20
-175.0503377939842
 10
540.2617872478677
 20
-174.9654216700646
 10
540.4616252560351
 20
-174.8816210342046
 10
540.661910645037
 20
-174.7989425883976
 10
540.8626356587755
 20
-174.7173930346376
 10
541.0637925411525
 20
-174.636979074918
 10
541.2653735360698
 20
-174.5577074112326
 10
541.4591606555725
 20
-174.482925043727
 10
541.6534716041796
 20
-174.4094941422318
 10
541.8482841630594
 20
-174.3373731838313
 10
542.0435761133817
 20
-174.2665206456101
 10
542.2393252363149
 20
-174.1968950046526
 10
542.4355093130274
 20
-174.1284547380433
 10
542.6321061246884
 20
-174.0611583228666
 10
542.8290934524673
 20
-173.994964236207
 10
543.0264490775323
 20
-173.929830955149
 10
543.224150781052
 20
-173.8657169567769
 10
543.4221763441959
 20
-173.8025807181752
 10
543.6205035481325
 20
-173.7403807164285
 10
543.8191101740309
 20
-173.6790754286211
 10
544.0179740030596
 20
-173.6186233318375
 10
544.2170728163877
 20
-173.5589829031622
 10
544.4163843951839
 20
-173.5001126196796
 10
544.6158865206171
 20
-173.4419709584741
 10
544.8155569738561
 20
-173.3845163966304
 10
545.0153735360699
 20
-173.3277074112326
 10
545.4078468473377
 20
-173.2165841670417
 10
545.8003305327597
 20
-173.1052353108261
 10
546.1928671445604
 20
-172.9938671597126
 10
546.5854992349648
 20
-172.882686030828
 10
546.9782693561972
 20
-172.7718982412991
 10
547.3712200604812
 20
-172.6617101082526
 10
547.7643939000423
 20
-172.5523279488153
 10
548.1578334271047
 20
-172.443958080114
 10
548.5515811938927
 20
-172.3368068192756
 10
548.9456797526308
 20
-172.2310804834265
 10
549.3401716555435
 20
-172.1269853896939
 10
549.7350994548555
 20
-172.0247278552043
 10
550.130505702791
 20
-171.9245141970846
 10
550.5264329515745
 20
-171.8265507324614
 10
550.9229237534307
 20
-171.7310437784618
 10
551.3200206605837
 20
-171.6381996522123
 10
551.7177662252584
 20
-171.5482246708397
 10
552.116202999679
 20
-171.4613251514709
 10
552.5153735360699
 20
-171.3777074112326
 10
552.9067214012906
 20
-171.2993085750876
 10
553.2986935473754
 20
-171.2242845322725
 10
553.69124625764
 20
-171.1524159723924
 10
554.0843358154008
 20
-171.0834835850524
 10
554.477918503973
 20
-171.0172680598577
 10
554.8719506066725
 20
-170.9535500864131
 10
555.2663884068154
 20
-170.892110354324
 10
555.6611881877175
 20
-170.8327295531955
 10
556.0563062326945
 20
-170.7751883726325
 10
556.4516988250623
 20
-170.7192675022402
 10
556.8473222481366
 20
-170.6647476316237
 10
557.2431327852335
 20
-170.6114094503882
 10
557.6390867196686
 20
-170.5590336481386
 10
558.0351403347579
 20
-170.5074009144801
 10
558.431249913817
 20
-170.4562919390178
 10
558.827371740162
 20
-170.4054874113568
 10
559.2234620971086
 20
-170.3547680211022
 10
559.6194772679726
 20
-170.3039144578591
 10
560.0153735360699
 20
-170.2527074112326
 10
560.409209987251
 20
-170.2016254730423
 10
560.8031148319933
 20
-170.1508346250603
 10
561.197093655569
 20
-170.1004337118687
 10
561.5911520432501
 20
-170.0505215780495
 10
561.9852955803087
 20
-170.0011970681849
 10
562.3795298520164
 20
-169.9525590268566
 10
562.7738604436454
 20
-169.9047062986469
 10
563.1682929404682
 20
-169.8577377281377
 10
563.5628329277562
 20
-169.8117521599111
 10
563.9574859907813
 20
-169.766848438549
 10
564.3522577148158
 20
-169.7231254086336
 10
564.7471536851319
 20
-169.6806819147469
 10
565.1421794870012
 20
-169.6396168014709
 10
565.537340705696
 20
-169.6000289133875
 10
565.932642926488
 20
-169.5620170950789
 10
566.3280917346494
 20
-169.5256801911271
 10
566.7236927154522
 20
-169.4911170461141
 10
567.1194514541684
 20
-169.4584265046219
 10
567.5153735360699
 20
-169.4277074112326
 10
567.9093849294
 20
-169.3987841122421
 10
568.3035216737625
 20
-169.3711286543435
 10
568.6977758728729
 20
-169.3447748268601
 10
569.0921396304468
 20
-169.3197564191151
 10
569.4866050501993
 20
-169.2961072204313
 10
569.8811642358454
 20
-169.273861020132
 10
570.2758092911008
 20
-169.2530516075402
 10
570.6705323196811
 20
-169.233712771979
 10
571.0653254253014
 20
-169.2158783027716
 10
571.4601807116765
 20
-169.1995819892409
 10
571.8550902825223
 20
-169.1848576207102
 10
572.2500462415542
 20
-169.1717389865025
 10
572.6450406924872
 20
-169.1602598759409
 10
573.0400657390369
 20
-169.1504540783485
 10
573.4351134849184
 20
-169.1423553830483
 10
573.830176033847
 20
-169.1359975793636
 10
574.2252454895383
 20
-169.1314144566173
 10
574.6203139557075
 20
-169.1286398041326
 10
575.0153735360699
 20
-169.1277074112326
 10
575.8050165555816
 20
-169.1284411999249
 10
576.5946780954015
 20
-169.1306641740548
 10
577.3843515669396
 20
-169.1344087457017
 10
578.1740303816067
 20
-169.1397073269452
 10
578.9637079508128
 20
-169.1465923298648
 10
579.7533776859681
 20
-169.1550961665398
 10
580.5430329984831
 20
-169.1652512490499
 10
581.3326672997682
 20
-169.1770899894744
 10
582.1222740012337
 20
-169.190644799893
 10
582.9118465142894
 20
-169.2059480923849
 10
583.7013782503462
 20
-169.2230322790298
 10
584.4908626208144
 20
-169.2419297719071
 10
585.2802930371038
 20
-169.2626729830964
 10
586.0696629106252
 20
-169.285294324677
 10
586.8589656527886
 20
-169.3098262087285
 10
587.6481946750046
 20
-169.3363010473302
 10
588.4373433886832
 20
-169.3647512525619
 10
589.2264052052349
 20
-169.3952092365029
 10
590.0153735360699
 20
-169.4277074112326
 10
590.8057446315406
 20
-169.4625299143594
 10
591.5960066981336
 20
-169.4997452850034
 10
592.3861613799395
 20
-169.539254650198
 10
593.17621032105
 20
-169.5809591369762
 10
593.9661551655556
 20
-169.6247598723712
 10
594.7559975575468
 20
-169.6705579834162
 10
595.5457391411155
 20
-169.7182545971443
 10
596.3353815603523
 20
-169.7677508405886
 10
597.1249264593482
 20
-169.8189478407825
 10
597.914375482194
 20
-169.8717467247588
 10
598.7037302729808
 20
-169.9260486195509
 10
599.4929924757997
 20
-169.9817546521919
 10
600.2821637347415
 20
-170.0387659497149
 10
601.0712456938974
 20
-170.0969836391532
 10
601.8602399973581
 20
-170.1563088475397
 10
602.6491482892146
 20
-170.2166427019078
 10
603.4379722135582
 20
-170.2778863292906
 10
604.2267134144797
 20
-170.3399408567211
 10
605.0153735360699
 20
-170.4027074112326
 10
605.8058199691482
 20
-170.466666160684
 10
606.596154500583
 20
-170.532039857368
 10
607.3863778042161
 20
-170.5987952998229
 10
608.1764905538892
 20
-170.6668992865874
 10
608.966493423444
 20
-170.7363186161994
 10
609.7563870867216
 20
-170.8070200871973
 10
610.546172217564
 20
-170.8789704981196
 10
611.3358494898131
 20
-170.9521366475045
 10
612.12541957731
 20
-171.0264853338904
 10
612.9148831538963
 20
-171.1019833558155
 10
613.7042408934138
 20
-171.1785975118183
 10
614.4934934697044
 20
-171.2562946004369
 10
615.2826415566092
 20
-171.3350414202098
 10
616.07168582797
 20
-171.4148047696753
 10
616.8606269576283
 20
-171.4955514473717
 10
617.6494656194259
 20
-171.5772482518373
 10
618.4382024872043
 20
-171.6598619816104
 10
619.2268382348051
 20
-171.7433594352294
 10
620.0153735360699
 20
-171.8277074112326
 10
620.8059565922291
 20
-171.9128248304492
 10
621.5965274641409
 20
-171.998287010085
 10
622.387066549575
 20
-172.0842217262012
 10
623.1775542463023
 20
-172.1707567548591
 10
623.9679709520925
 20
-172.2580198721195
 10
624.7582970647156
 20
-172.3461388540434
 10
625.5485129819422
 20
-172.4352414766921
 10
626.3385991015426
 20
-172.5254555161266
 10
627.1285358212867
 20
-172.616908748408
 10
627.9183035389443
 20
-172.7097289495971
 10
628.7078826522862
 20
-172.8040438957553
 10
629.4972535590824
 20
-172.8999813629436
 10
630.2863966571031
 20
-172.997669127223
 10
631.0752923441183
 20
-173.0972349646545
 10
631.8639210178983
 20
-173.1988066512994
 10
632.6522630762133
 20
-173.3025119632185
 10
633.4402989168334
 20
-173.4084786764731
 10
634.228008937529
 20
-173.5168345671241
 10
635.0153735360699
 20
-173.6277074112326
 10
635.8072939567307
 20
-173.742082891625
 10
636.5987822839136
 20
-173.8593189023931
 10
637.3898667941837
 20
-173.9792221671469
 10
638.1805757641076
 20
-174.101599409497
 10
638.9709374702506
 20
-174.2262573530533
 10
639.7609801891779
 20
-174.353002721426
 10
640.5507321974559
 20
-174.4816422382256
 10
641.3402217716506
 20
-174.6119826270622
 10
642.1294771883272
 20
-174.7438306115461
 10
642.9185267240515
 20
-174.8769929152873
 10
643.7073986553894
 20
-175.0112762618963
 10
644.4961212589067
 20
-175.1464873749832
 10
645.2847228111689
 20
-175.2824329781582
 10
646.0732315887419
 20
-175.4189197950317
 10
646.8616758681915
 20
-175.5557545492137
 10
647.6500839260833
 20
-175.6927439643146
 10
648.4384840389832
 20
-175.8296947639446
 10
649.2269044834568
 20
-175.9664136717138
 10
650.0153735360699
 20
-176.1027074112326
 10
650.8058605424526
 20
-176.2390982560703
 10
651.5963366672534
 20
-176.3756130736667
 10
652.3867839616894
 20
-176.5123420338942
 10
653.1771844769778
 20
-176.6493753066254
 10
653.9675202643353
 20
-176.7868030617323
 10
654.7577733749785
 20
-176.9247154690876
 10
655.5479258601247
 20
-177.0632026985635
 10
656.3379597709908
 20
-177.2023549200325
 10
657.1278571587939
 20
-177.342262303367
 10
657.9176000747505
 20
-177.4830150184392
 10
658.7071705700777
 20
-177.6247032351216
 10
659.4965506959926
 20
-177.7674171232865
 10
660.2857225037119
 20
-177.9112468528064
 10
661.0746680444527
 20
-178.0562825935536
 10
661.8633693694318
 20
-178.2026145154005
 10
662.651808529866
 20
-178.3503327882195
 10
663.4399675769727
 20
-178.4995275818829
 10
664.2278285619683
 20
-178.6502890662632
 10
665.0153735360699
 20
-178.8027074112326
 10
665.4123379068375
 20
-178.8805680640337
 10
665.8090955513022
 20
-178.9595637616587
 10
666.2056392735436
 20
-179.0397012687433
 10
666.6019618776418
 20
-179.120987349923
 10
666.9980561676763
 20
-179.2034287698335
 10
667.3939149477262
 20
-179.2870322931102
 10
667.7895310218718
 20
-179.3718046843888
 10
668.1848971941929
 20
-179.457752708305
 10
668.5800062687688
 20
-179.5448831294942
 10
668.974851049679
 20
-179.633202712592
 10
669.3694243410033
 20
-179.7227182222341
 10
669.7637189468219
 20
-179.8134364230559
 10
670.1577276712137
 20
-179.9053640796932
 10
670.5514433182587
 20
-179.9985079567814
 10
670.9448586920366
 20
-180.0928748189562
 10
671.337966596627
 20
-180.1884714308531
 10
671.7307598361097
 20
-180.2853045571078
 10
672.123231214564
 20
-180.3833809623557
 10
672.5153735360699
 20
-180.4827074112326
 10
672.9130596901716
 20
-180.58476193388
 10
673.3104491591112
 20
-180.6880297953961
 10
673.7075364694467
 20
-180.7925094303765
 10
674.1043161477365
 20
-180.8981992734169
 10
674.5007827205387
 20
-181.0050977591129
 10
674.8969307144108
 20
-181.1132033220601
 10
675.2927546559115
 20
-181.222514396854
 10
675.6882490715985
 20
-181.3330294180903
 10
676.0834084880304
 20
-181.4447468203647
 10
676.4782274317644
 20
-181.5576650382727
 10
676.8727004293592
 20
-181.6717825064098
 10
677.2668220073728
 20
-181.7870976593719
 10
677.660586692363
 20
-181.9036089317543
 10
678.0539890108882
 20
-182.0213147581529
 10
678.4470234895065
 20
-182.1402135731631
 10
678.8396846547755
 20
-182.2603038113805
 10
679.2319670332539
 20
-182.3815839074009
 10
679.6238651514992
 20
-182.5040522958197
 10
680.0153735360699
 20
-182.6277074112326
  0
ENDBLK
  5
3D
330
3A
100
AcDbEntity
  8
0
100
AcDbBlockEnd
  0
BLOCK
  5
42
330
40
100
AcDbEntity
  8
0
100
AcDbBlockBegin
  2
*E2
 70
     1
 71
     0
 10
0.0
 20
0.0
 30
0.0
  3
*E2
  1

  0
LWPOLYLINE
  5
41
330
40
100
AcDbEntity
  8
0
  6
Continuous
 62
     7
370
     0
100
AcDbPolyline
 90
      324
 70
   128
 43
0.0
 10
530.0928732987586
 20
-183.3567824836171
 10
530.1334343094844
 20
-183.4688840530256
 10
530.1783627733346
 20
-183.5784035540154
 10
530.2279476547561
 20
-183.6850133589379
 10
530.2824779181967
 20
-183.7883858401445
 10
530.342242528103
 20
-183.8881933699864
 10
530.407530448922
 20
-183.9841083208149
 10
530.4786306451009
 20
-184.0758030649815
 10
530.555832081087
 20
-184.1629499748375
 10
530.6394237213274
 20
-184.2452214227342
 10
530.7296945302687
 20
-184.3222897810228
 10
530.8269334723586
 20
-184.3938274220549
 10
530.9314295120439
 20
-184.4595067181816
 10
531.0434716137718
 20
-184.5190000417545
 10
531.1633487419894
 20
-184.5719797651246
 10
531.2913498611435
 20
-184.6181182606435
 10
531.4277639356816
 20
-184.6570879006624
 10
531.5728799300506
 20
-184.6885610575326
 10
531.7269868086977
 20
-184.7122101036056
 10
531.8903735360698
 20
-184.7277074112326
 10
531.9913731321536
 20
-184.7321733879585
 10
532.091890948132
 20
-184.7321729988876
 10
532.1919782443551
 20
-184.728048247925
 10
532.2916862811741
 20
-184.7201411389762
 10
532.3910663189392
 20
-184.7087936759461
 10
532.4901696180007
 20
-184.6943478627398
 10
532.5890474387093
 20
-184.6771457032626
 10
532.6877510414157
 20
-184.6575292014197
 10
532.7863316864705
 20
-184.6358403611161
 10
532.8848406342236
 20
-184.6124211862571
 10
532.9833291450261
 20
-184.5876136807477
 10
533.0818484792286
 20
-184.5617598484933
 10
533.1804498971812
 20
-184.5352016933989
 10
533.2791846592347
 20
-184.5082812193697
 10
533.3781040257395
 20
-184.4813404303109
 10
533.4772592570462
 20
-184.4547213301275
 10
533.5767016135053
 20
-184.4287659227249
 10
533.6764823554673
 20
-184.4038162120081
 10
533.7766527432829
 20
-184.3802142018822
 10
533.9712103504673
 20
-184.3369194720843
 10
534.1661879590713
 20
-184.295306795179
 10
534.3615549251459
 20
-184.2552806727464
 10
534.5572806047426
 20
-184.2167456063663
 10
534.7533343539121
 20
-184.1796060976185
 10
534.9496855287057
 20
-184.1437666480826
 10
535.1463034851744
 20
-184.1091317593387
 10
535.3431575793694
 20
-184.0756059329665
 10
535.540217167342
 20
-184.0430936705458
 10
535.7374516051428
 20
-184.0114994736564
 10
535.9348302488235
 20
-183.9807278438782
 10
536.132322454435
 20
-183.9506832827911
 10
536.3298975780283
 20
-183.9212702919746
 10
536.5275249756546
 20
-183.8923933730089
 10
536.7251740033648
 20
-183.8639570274735
 10
536.9228140172105
 20
-183.8358657569484
 10
537.1204143732424
 20
-183.8080240630133
 10
537.3179444275119
 20
-183.7803364472481
 10
537.5153735360698
 20
-183.7527074112326
 10
537.7127559226041
 20
-183.7251721483101
 10
537.9101631366614
 20
-183.6978081138761
 10
538.1075905230808
 20
-183.670583202589
 10
538.3050334267024
 20
-183.6434653091073
 10
538.5024871923652
 20
-183.6164223280894
 10
538.6999471649085
 20
-183.5894221541936
 10
538.8974086891722
 20
-183.5624326820783
 10
539.0948671099953
 20
-183.535421806402
 10
539.2923177722179
 20
-183.508357421823
 10
539.4897560206787
 20
-183.4812074229997
 10
539.6871772002175
 20
-183.4539397045905
 10
539.8845766556739
 20
-183.4265221612538
 10
540.081949731887
 20
-183.3989226876481
 10
540.2792917736965
 20
-183.3711091784316
 10
540.4765981259419
 20
-183.3430495282629
 10
540.6738641334623
 20
-183.3147116318002
 10
540.8710851410976
 20
-183.286063383702
 10
541.0682564936869
 20
-183.2570726786267
 10
541.2653735360698
 20
-183.2277074112326
 10
541.4629641106178
 20
-183.1975374226828
 10
541.6604146385295
 20
-183.1664206417819
 10
541.857745477966
 20
-183.1344965228899
 10
542.0549769870895
 20
-183.1019045203662
 10
542.2521295240609
 20
-183.0687840885705
 10
542.4492234470413
 20
-183.0352746818621
 10
542.6462791141923
 20
-183.001515754601
 10
542.8433168836759
 20
-182.9676467611465
 10
543.0403571136529
 20
-182.9338071558584
 10
543.2374201622845
 20
-182.9001363930961
 10
543.4345263877325
 20
-182.8667739272192
 10
543.6316961481582
 20
-182.8338592125876
 10
543.828949801723
 20
-182.8015317035604
 10
544.0263077065882
 20
-182.7699308544976
 10
544.2237902209152
 20
-182.7391961197586
 10
544.4214177028655
 20
-182.709466953703
 10
544.6192105106005
 20
-182.6808828106903
 10
544.8171890022815
 20
-182.6535831450804
 10
545.0153735360699
 20
-182.6277074112326
 10
545.4094015749022
 20
-182.5782741224701
 10
545.8035419744123
 20
-182.5297514227561
 10
546.1977888043486
 20
-182.4820965068885
 10
546.5921361344602
 20
-182.4352665696653
 10
546.9865780344952
 20
-182.3892188058843
 10
547.3811085742017
 20
-182.3439104103435
 10
547.7757218233285
 20
-182.2992985778408
 10
548.1704118516242
 20
-182.2553405031742
 10
548.5651727288371
 20
-182.2119933811417
 10
548.9599985247155
 20
-182.1692144065411
 10
549.3548833090078
 20
-182.1269607741704
 10
549.749821151463
 20
-182.0851896788275
 10
550.144806121829
 20
-182.0438583153103
 10
550.5398322898545
 20
-182.0029238784169
 10
550.934893725288
 20
-181.962343562945
 10
551.3299844978777
 20
-181.9220745636927
 10
551.7250986773724
 20
-181.882074075458
 10
552.1202303335203
 20
-181.8422992930386
 10
552.5153735360699
 20
-181.8027074112326
 10
552.909709529467
 20
-181.7625914856623
 10
553.3039976242478
 20
-181.7213134935953
 10
553.6982541328879
 20
-181.6791684979385
 10
554.0924953678633
 20
-181.6364515615988
 10
554.4867376416493
 20
-181.5934577474831
 10
554.8809972667211
 20
-181.5504821184981
 10
555.2752905555546
 20
-181.507819737551
 10
555.6696338206256
 20
-181.4657656675484
 10
556.0640433744093
 20
-181.4246149713974
 10
556.4585355293812
 20
-181.3846627120047
 10
556.853126598017
 20
-181.3462039522772
 10
557.2478328927923
 20
-181.309533755122
 10
557.6426707261825
 20
-181.2749471834457
 10
558.0376564106633
 20
-181.2427393001553
 10
558.4328062587102
 20
-181.2132051681577
 10
558.8281365827988
 20
-181.1866398503597
 10
559.2236636954045
 20
-181.1633384096683
 10
559.619403909003
 20
-181.1435959089903
 10
560.0153735360699
 20
-181.1277074112326
 10
560.4107894232409
 20
-181.1121824570778
 10
560.8077645085822
 20
-181.0934395700032
 10
561.2061124644289
 20
-181.0717964243133
 10
561.6056469631167
 20
-181.0475706943127
 10
562.0061816769805
 20
-181.0210800543055
 10
562.4075302783554
 20
-180.9926421785962
 10
562.8095064395768
 20
-180.9625747414891
 10
563.2119238329802
 20
-180.9311954172888
 10
563.6145961309005
 20
-180.8988218802997
 10
564.0173370056727
 20
-180.865771804826
 10
564.4199601296324
 20
-180.8323628651721
 10
564.8222791751149
 20
-180.7989127356425
 10
565.224107814455
 20
-180.7657390905415
 10
565.6252597199884
 20
-180.7331596041736
 10
566.02554856405
 20
-180.7014919508432
 10
566.424788018975
 20
-180.6710538048546
 10
566.822791757099
 20
-180.6421628405122
 10
567.2193734507568
 20
-180.6151367321205
 10
567.6143467722839
 20
-180.5902931539838
 10
568.0109641558013
 20
-180.5674137169346
 10
568.4052553645611
 20
-180.5463553042832
 10
568.7974918870675
 20
-180.5268709897027
 10
569.187945211825
 20
-180.5087138468662
 10
569.5768868273371
 20
-180.4916369494465
 10
569.9645882221081
 20
-180.4753933711168
 10
570.3513208846422
 20
-180.4597361855499
 10
570.7373563034437
 20
-180.4444184664191
 10
571.1229659670164
 20
-180.4291932873972
 10
571.5084213638645
 20
-180.4138137221572
 10
571.893993982492
 20
-180.3980328443723
 10
572.2799553114033
 20
-180.3816037277153
 10
572.6665768391024
 20
-180.3642794458593
 10
573.0541300540933
 20
-180.3458130724773
 10
573.4428864448803
 20
-180.3259576812423
 10
573.8331174999671
 20
-180.3044663458273
 10
574.2250947078584
 20
-180.2810921399054
 10
574.6190895570579
 20
-180.2555881371495
 10
575.0153735360699
 20
-180.2277074112326
 10
575.8034911368261
 20
-180.171820761135
 10
576.5918546600994
 20
-180.1196170026186
 10
577.3804472976702
 20
-180.070922835262
 10
578.1692522413193
 20
-180.0255649586435
 10
578.9582526828266
 20
-179.9833700723415
 10
579.7474318139724
 20
-179.9441648759342
 10
580.5367728265375
 20
-179.9077760690002
 10
581.3262589123021
 20
-179.8740303511178
 10
582.1158732630468
 20
-179.8427544218654
 10
582.9055990705513
 20
-179.8137749808214
 10
583.6954195265967
 20
-179.786918727564
 10
584.4853178229632
 20
-179.7620123616718
 10
585.2752771514309
 20
-179.738882582723
 10
586.0652807037807
 20
-179.7173560902962
 10
586.8553116717926
 20
-179.6972595839695
 10
587.645353247247
 20
-179.6784197633214
 10
588.4353886219245
 20
-179.6606633279303
 10
589.2254009876053
 20
-179.6438169773746
 10
590.0153735360699
 20
-179.6277074112326
 10
590.8047081538688
 20
-179.6130864226728
 10
591.5940780062315
 20
-179.6007217639325
 10
592.3834796020858
 20
-179.5905019452117
 10
593.1729094503609
 20
-179.5823154767099
 10
593.9623640599841
 20
-179.5760508686269
 10
594.7518399398837
 20
-179.571596631162
 10
595.5413335989879
 20
-179.5688412745152
 10
596.3308415462254
 20
-179.5676733088861
 10
597.1203602905239
 20
-179.5679812444743
 10
597.9098863408116
 20
-179.5696535914795
 10
598.6994162060167
 20
-179.5725788601012
 10
599.4889463950677
 20
-179.5766455605393
 10
600.2784734168924
 20
-179.5817422029933
 10
601.0679937804192
 20
-179.5877572976628
 10
601.8575039945762
 20
-179.5945793547477
 10
602.6470005682916
 20
-179.6020968844474
 10
603.4364800104935
 20
-179.6101983969617
 10
604.2259388301103
 20
-179.6187724024902
 10
605.0153735360699
 20
-179.6277074112326
 10
605.8050049936857
 20
-179.6371483677025
 10
606.5946367494282
 20
-179.647335860266
 10
607.3842656570909
 20
-179.6583090676177
 10
608.1738885704669
 20
-179.6701071684523
 10
608.9635023433495
 20
-179.6827693414645
 10
609.7531038295315
 20
-179.6963347653485
 10
610.5426898828064
 20
-179.7108426187991
 10
611.3322573569675
 20
-179.726332080511
 10
612.1218031058078
 20
-179.7428423291787
 10
612.9113239831204
 20
-179.7604125434966
 10
613.7008168426986
 20
-179.7790819021596
 10
614.4902785383357
 20
-179.7988895838621
 10
615.2797059238248
 20
-179.8198747672988
 10
616.0690958529591
 20
-179.8420766311642
 10
616.8584451795316
 20
-179.8655343541529
 10
617.6477507573359
 20
-179.8902871149595
 10
618.437009440165
 20
-179.9163740922786
 10
619.2262180818118
 20
-179.9438344648048
 10
620.0153735360699
 20
-179.9727074112326
 10
620.8053135749973
 20
-180.0033657963949
 10
621.595167579436
 20
-180.035995969196
 10
622.3849415877324
 20
-180.0704537758647
 10
623.174641638234
 20
-180.1065950626298
 10
623.9642737692869
 20
-180.1442756757201
 10
624.7538440192377
 20
-180.1833514613641
 10
625.5433584264332
 20
-180.2236782657909
 10
626.3328230292204
 20
-180.2651119352292
 10
627.1222438659458
 20
-180.3075083159077
 10
627.911626974956
 20
-180.3507232540552
 10
628.7009783945975
 20
-180.3946125959003
 10
629.4903041632176
 20
-180.439032187672
 10
630.2796103191624
 20
-180.483837875599
 10
631.068902900779
 20
-180.52888550591
 10
631.8581879464139
 20
-180.5740309248338
 10
632.6474714944136
 20
-180.6191299785992
 10
633.4367595831251
 20
-180.664038513435
 10
634.226058250895
 20
-180.7086123755699
 10
635.0153735360699
 20
-180.7527074112326
 10
635.8050307324144
 20
-180.7961875794633
 10
636.5947319917534
 20
-180.8390877443082
 10
637.384465939987
 20
-180.8815710196812
 10
638.1742212030159
 20
-180.9238005194965
 10
638.9639864067404
 20
-180.9659393576677
 10
639.75375017706
 20
-181.0081506481086
 10
640.543501139876
 20
-181.0505975047334
 10
641.3332279210883
 20
-181.0934430414561
 10
642.1229191465975
 20
-181.1368503721903
 10
642.9125634423032
 20
-181.18098261085
 10
643.7021494341063
 20
-181.2260028713492
 10
644.4916657479071
 20
-181.2720742676018
 10
645.2811010096057
 20
-181.3193599135216
 10
646.0704438451024
 20
-181.3680229230227
 10
646.8596828802977
 20
-181.4182264100188
 10
647.6488067410917
 20
-181.470133488424
 10
648.437804053385
 20
-181.5239072721521
 10
649.2266634430775
 20
-181.579710875117
 10
650.0153735360699
 20
-181.6377074112326
 10
650.8058055681016
 20
-181.698035675062
 10
651.5960769320883
 20
-181.7603589357571
 10
652.3861971900812
 20
-181.8245508966441
 10
653.1761759041311
 20
-181.8904852610496
 10
653.9660226362881
 20
-181.9580357322998
 10
654.7557469486027
 20
-182.0270760137209
 10
655.5453584031256
 20
-182.0974798086393
 10
656.3348665619077
 20
-182.1691208203814
 10
657.1242809869995
 20
-182.2418727522734
 10
657.9136112404511
 20
-182.3156093076417
 10
658.7028668843135
 20
-182.3902041898126
 10
659.4920574806374
 20
-182.4655311021124
 10
660.2811925914732
 20
-182.5414637478675
 10
661.0702817788713
 20
-182.6178758304042
 10
661.8593346048826
 20
-182.6946410530488
 10
662.6483606315574
 20
-182.7716331191276
 10
663.4373694209467
 20
-182.848725731967
 10
664.2263705351006
 20
-182.9257925948932
 10
665.0153735360699
 20
-183.0027074112326
 10
665.410581850428
 20
-183.0415886014492
 10
665.8057100955277
 20
-183.0812569180021
 10
666.2007631566839
 20
-183.1216624731535
 10
666.5957459192125
 20
-183.1627553791662
 10
666.9906632684281
 20
-183.2044857483028
 10
667.3855200896456
 20
-183.2468036928255
 10
667.7803212681806
 20
-183.2896593249971
 10
668.1750716893483
 20
-183.3330027570802
 10
668.5697762384636
 20
-183.3767841013372
 10
668.9644398008418
 20
-183.4209534700306
 10
669.3590672617976
 20
-183.4654609754231
 10
669.753663506647
 20
-183.5102567297772
 10
670.1482334207043
 20
-183.5552908453553
 10
670.5427818892852
 20
-183.6005134344201
 10
670.9373137977044
 20
-183.6458746092341
 10
671.3318340312774
 20
-183.6913244820598
 10
671.7263474753192
 20
-183.7368131651597
 10
672.120859015145
 20
-183.7822907707965
 10
672.5153735360699
 20
-183.8277074112326
 10
672.9103276286675
 20
-183.8732310123914
 10
673.3052584866097
 20
-183.9189597020529
 10
673.7001659503161
 20
-183.9648934610676
 10
674.0950498602068
 20
-184.0110322702859
 10
674.4899100567015
 20
-184.0573761105582
 10
674.8847463802193
 20
-184.1039249627345
 10
675.2795586711807
 20
-184.1506788076655
 10
675.6743467700051
 20
-184.1976376262016
 10
676.0691105171122
 20
-184.244801399193
 10
676.4638497529216
 20
-184.2921701074901
 10
676.858564317853
 20
-184.3397437319433
 10
677.2532540523267
 20
-184.3875222534031
 10
677.6479187967618
 20
-184.4355056527196
 10
678.0425583915783
 20
-184.4836939107433
 10
678.4371726771956
 20
-184.5320870083246
 10
678.8317614940337
 20
-184.5806849263138
 10
679.2263246825124
 20
-184.6294876455613
 10
679.6208620830512
 20
-184.6784951469175
 10
680.0153735360699
 20
-184.7277074112326
  0
ENDBLK
  5
43
330
40
100
AcDbEntity
  8
0
100
AcDbBlockEnd
  0
BLOCK
  5
49
330
47
100
AcDbEntity
  8
0
100
AcDbBlockBegin
  2
*E3
 70
     1
 71
     0
 10
0.0
 20
0.0
 30
0.0
  3
*E3
  1

  0
LWPOLYLINE
  5
48
330
47
100
AcDbEntity
  8
0
  6
Continuous
 62
     7
370
     0
100
AcDbPolyline
 90
      141
 70
   128
 43
0.0
 10
668.8583485860765
 20
-179.6105300755177
 10
668.9672322935434
 20
-179.6335908927086
 10
669.0760714531964
 20
-179.656870700486
 10
669.1848654097589
 20
-179.680369346956
 10
669.2936135079544
 20
-179.7040866802252
 10
669.4023150925058
 20
-179.7280225483998
 10
669.5109695081364
 20
-179.7521767995862
 10
669.61957609957
 20
-179.7765492818908
 10
669.7281342115296
 20
-179.8011398434199
 10
669.8366431887382
 20
-179.8259483322799
 10
669.9451023759193
 20
-179.850974596577
 10
670.0535111177965
 20
-179.8762184844179
 10
670.1618687590926
 20
-179.9016798439087
 10
670.2701746445313
 20
-179.9273585231557
 10
670.3784281188355
 20
-179.9532543702655
 10
670.486628526729
 20
-179.9793672333442
 10
670.5947752129345
 20
-180.0056969604983
 10
670.7028675221758
 20
-180.0322433998342
 10
670.8109047991757
 20
-180.0590063994582
 10
670.9188863886578
 20
-180.0859858074766
 10
671.0268116353456
 20
-180.1131814719958
 10
671.2759662429173
 20
-180.1763516499611
 10
671.5250642680626
 20
-180.2397475454
 10
671.7741058586796
 20
-180.3033675015273
 10
672.0230911626682
 20
-180.3672098615583
 10
672.2720203279259
 20
-180.4312729687076
 10
672.5208935023525
 20
-180.4955551661905
 10
672.7697108338466
 20
-180.560054797222
 10
673.0184724703071
 20
-180.6247702050171
 10
673.2671785596325
 20
-180.6896997327908
 10
673.5158292497216
 20
-180.754841723758
 10
673.7644246884737
 20
-180.820194521134
 10
674.0129650237875
 20
-180.8857564681336
 10
674.2614504035614
 20
-180.9515259079718
 10
674.5098809756945
 20
-181.0175011838638
 10
674.7582568880858
 20
-181.0836806390245
 10
675.0065782886337
 20
-181.1500626166688
 10
675.2548453252375
 20
-181.216645460012
 10
675.5030581457956
 20
-181.2834275122689
 10
675.7512168982072
 20
-181.3504071166546
 10
675.9993217303709
 20
-181.4175826163841
 10
676.104330916946
 20
-181.4462275355352
 10
676.2092560154468
 20
-181.475175063392
 10
676.3141016989616
 20
-181.5044078886365
 10
676.4188726405779
 20
-181.5339086999506
 10
676.5235735133832
 20
-181.5636601860163
 10
676.6282089904661
 20
-181.5936450355157
 10
676.7327837449144
 20
-181.6238459371308
 10
676.8373024498158
 20
-181.6542455795434
 10
676.9417697782579
 20
-181.6848266514356
 10
677.0461904033289
 20
-181.7155718414893
 10
677.1505689981169
 20
-181.7464638383866
 10
677.2549102357094
 20
-181.7774853308094
 10
677.3592187891944
 20
-181.8086190074397
 10
677.4634993316597
 20
-181.8398475569595
 10
677.5677565361934
 20
-181.8711536680508
 10
677.671995075883
 20
-181.9025200293954
 10
677.776219623817
 20
-181.9339293296756
 10
677.8804348530825
 20
-181.9653642575731
 10
677.9846454367681
 20
-181.99680750177
 10
678.0888560479614
 20
-182.0282417509484
 10
678.1871447486243
 20
-182.0579564048943
 10
678.2853921934573
 20
-182.0878063233849
 10
678.3836008565431
 20
-182.1177833185184
 10
678.4817732119658
 20
-182.1478792023934
 10
678.5799117338075
 20
-182.1780857871081
 10
678.6780188961521
 20
-182.2083948847609
 10
678.7760971730829
 20
-182.2387983074503
 10
678.8741490386828
 20
-182.2692878672748
 10
678.9721769670348
 20
-182.2998553763325
 10
679.0701834322222
 20
-182.330492646722
 10
679.1681709083286
 20
-182.3611914905418
 10
679.2661418694369
 20
-182.3919437198901
 10
679.3640987896302
 20
-182.4227411468653
 10
679.4620441429918
 20
-182.4535755835659
 10
679.5599804036051
 20
-182.4844388420903
 10
679.6579100455529
 20
-182.5153227345368
 10
679.7558355429186
 20
-182.546219073004
 10
679.8537593697853
 20
-182.57711966959
 10
679.9516840002364
 20
-182.6080163363934
 10
680.0496119083549
 20
-182.6389008855126
 10
680.2537357625102
 20
-182.7032745675388
 10
680.4578498153368
 20
-182.767679444136
 10
680.6619538851583
 20
-182.832116054932
 10
680.8660477903002
 20
-182.8965849395551
 10
681.0701313490865
 20
-182.9610866376335
 10
681.2742043798419
 20
-183.0256216887952
 10
681.4782667008914
 20
-183.0901906326687
 10
681.6823181305589
 20
-183.1547940088818
 10
681.8863584871691
 20
-183.2194323570628
 10
682.0903875890465
 20
-183.2841062168397
 10
682.2944052545163
 20
-183.348816127841
 10
682.4984113019024
 20
-183.4135626296945
 10
682.7024055495294
 20
-183.4783462620286
 10
682.906387815722
 20
-183.5431675644712
 10
683.110357918805
 20
-183.6080270766508
 10
683.3143156771023
 20
-183.6729253381952
 10
683.5182609089393
 20
-183.7378628887328
 10
683.7221934326396
 20
-183.8028402678916
 10
683.9261130665287
 20
-183.8678580152998
 10
684.1300196289307
 20
-183.9329166705857
 10
684.2524664987942
 20
-183.9720465051934
 10
684.3748870031013
 20
-184.0112584671309
 10
684.4972836530274
 20
-184.0505447374787
 10
684.6196589597482
 20
-184.0898974973178
 10
684.742015434439
 20
-184.1293089277285
 10
684.8643555882761
 20
-184.1687712097917
 10
684.9866819324353
 20
-184.2082765245881
 10
685.1089969780916
 20
-184.2478170531984
 10
685.231303236421
 20
-184.2873849767031
 10
685.353603218599
 20
-184.326972476183
 10
685.4758994358019
 20
-184.3665717327189
 10
685.5981943992047
 20
-184.4061749273914
 10
685.7204906199833
 20
-184.445774241281
 10
685.8427906093132
 20
-184.4853618554686
 10
685.9650968783706
 20
-184.5249299510349
 10
686.0874119383304
 20
-184.5644707090604
 10
686.209738300369
 20
-184.603976310626
 10
686.3320784756615
 20
-184.6434389368122
 10
686.4544349753843
 20
-184.6828507686998
 10
686.5768103107123
 20
-184.7222039873694
 10
686.7755317795602
 20
-184.7859635567863
 10
686.9726896053893
 20
-184.8490606876481
 10
687.1684559784285
 20
-184.9115737664843
 10
687.3630030889076
 20
-184.9735811798249
 10
687.556503127055
 20
-185.0351613141993
 10
687.7491282831007
 20
-185.0963925561375
 10
687.941050747274
 20
-185.1573532921693
 10
688.132442709804
 20
-185.2181219088243
 10
688.3234763609196
 20
-185.2787767926324
 10
688.5143238908502
 20
-185.3393963301231
 10
688.7051574898254
 20
-185.4000589078264
 10
688.8961493480743
 20
-185.460842912272
 10
689.087471655826
 20
-185.5218267299896
 10
689.27929660331
 20
-185.5830887475089
 10
689.4717963807554
 20
-185.6447073513598
 10
689.6651431783915
 20
-185.706760928072
 10
689.8595091864477
 20
-185.7693278641752
 10
690.055066595153
 20
-185.8324865461991
 10
690.2519875947368
 20
-185.8963153606736
 10
690.4504443754284
 20
-185.9608926941283
  0
ENDBLK
  5
4A
330
47
100
AcDbEntity
  8
0
100
AcDbBlockEnd
  0
BLOCK
  5
4E
330
4C
100
AcDbEntity
  8
0
100
AcDbBlockBegin
  2
*E4
 70
     1
 71
     0
 10
0.0
 20
0.0
 30
0.0
  3
*E4
  1

  0
LWPOLYLINE
  5
4D
330
4C
100
AcDbEntity
  8
0
  6
Continuous
 62
     7
370
     0
100
AcDbPolyline
 90
      141
 70
   128
 43
0.0
 10
671.3861450712384
 20
-183.6982075471711
 10
671.4120118285343
 20
-183.7010506166159
 10
671.4378778428438
 20
-183.7039005122193
 10
671.4637431114658
 20
-183.7067572336776
 10
671.4896076317002
 20
-183.7096207806871
 10
671.5154714008455
 20
-183.7124911529441
 10
671.5413344162016
 20
-183.7153683501448
 10
671.5671966750681
 20
-183.7182523719858
 10
671.5930581747438
 20
-183.7211432181631
 10
671.6189189125278
 20
-183.7240408883731
 10
671.6447788857196
 20
-183.7269453823121
 10
671.670638091619
 20
-183.7298566996765
 10
671.6964965275249
 20
-183.7327748401625
 10
671.7223541907363
 20
-183.7356998034665
 10
671.7482110785528
 20
-183.7386315892847
 10
671.7740671882739
 20
-183.7415701973135
 10
671.7999225171984
 20
-183.7445156272492
 10
671.8257770626262
 20
-183.747467878788
 10
671.8516308218561
 20
-183.7504269516264
 10
671.8774837921878
 20
-183.7533928454605
 10
671.9033359709204
 20
-183.7563655599867
 10
671.9537119474267
 20
-183.7621729834492
 10
672.0040862018769
 20
-183.7679952686032
 10
672.0544588987663
 20
-183.7738309964758
 10
672.1048302025912
 20
-183.7796787480942
 10
672.1552002778471
 20
-183.7855371044855
 10
672.20556928903
 20
-183.7914046466769
 10
672.2559374006363
 20
-183.7972799556954
 10
672.3063047771614
 20
-183.8031616125684
 10
672.3566715831012
 20
-183.8090481983228
 10
672.4070379829515
 20
-183.8149382939858
 10
672.4574041412086
 20
-183.8208304805846
 10
672.5077702223682
 20
-183.8267233391463
 10
672.558136390926
 20
-183.832615450698
 10
672.608502811378
 20
-183.8385053962669
 10
672.6588696482204
 20
-183.8443917568802
 10
672.7092370659484
 20
-183.8502731135648
 10
672.7596052290585
 20
-183.8561480473482
 10
672.8099743020463
 20
-183.8620151392572
 10
672.8603444494078
 20
-183.8678729703191
 10
672.9107158356388
 20
-183.8737201215611
 10
672.9810227950179
 20
-183.8818633388168
 10
673.0513318112246
 20
-183.8899888888605
 10
673.1216425752074
 20
-183.8980994237097
 10
673.1919547779164
 20
-183.9061975953823
 10
673.2622681103002
 20
-183.914286055896
 10
673.332582263308
 20
-183.9223674572688
 10
673.4028969278897
 20
-183.9304444515184
 10
673.4732117949937
 20
-183.9385196906625
 10
673.5435265555698
 20
-183.9465958267189
 10
673.6138409005665
 20
-183.9546755117055
 10
673.6841545209339
 20
-183.96276139764
 10
673.7544671076207
 20
-183.9708561365402
 10
673.8247783515761
 20
-183.9789623804239
 10
673.8950879437493
 20
-183.9870827813088
 10
673.96539557509
 20
-183.9952199912129
 10
674.0357009365467
 20
-184.0033766621537
 10
674.1060037190692
 20
-184.0115554461493
 10
674.1763036136063
 20
-184.0197589952172
 10
674.2466003111075
 20
-184.0279899613754
 10
674.3168935025218
 20
-184.0362509966416
 10
674.4501154321384
 20
-184.0519474677381
 10
674.5833352408164
 20
-184.0676619475188
 10
674.7165529888305
 20
-184.0833939117653
 10
674.8497687364576
 20
-184.0991428362592
 10
674.9829825439728
 20
-184.114908196782
 10
675.1161944716522
 20
-184.1306894691153
 10
675.2494045797719
 20
-184.1464861290408
 10
675.3826129286076
 20
-184.1622976523401
 10
675.5158195784348
 20
-184.1781235147947
 10
675.6490245895296
 20
-184.1939631921862
 10
675.7822280221683
 20
-184.2098161602963
 10
675.9154299366262
 20
-184.2256818949065
 10
676.0486303931791
 20
-184.2415598717984
 10
676.1818294521029
 20
-184.2574495667536
 10
676.3150271736738
 20
-184.2733504555538
 10
676.4482236181673
 20
-184.2892620139804
 10
676.5814188458594
 20
-184.3051837178152
 10
676.7146129170258
 20
-184.3211150428396
 10
676.8478058919425
 20
-184.3370554648353
 10
676.9809978308853
 20
-184.3530044595839
 10
677.1326336776924
 20
-184.3712030817825
 10
677.2842617370815
 20
-184.3894670028389
 10
677.4358831385493
 20
-184.4077867362836
 10
677.5874990115943
 20
-184.4261527956476
 10
677.7391104857136
 20
-184.4445556944615
 10
677.8907186904049
 20
-184.462985946256
 10
678.0423247551665
 20
-184.481434064562
 10
678.1939298094953
 20
-184.4998905629102
 10
678.3455349828891
 20
-184.5183459548312
 10
678.4971414048456
 20
-184.5367907538559
 10
678.6487502048626
 20
-184.555215473515
 10
678.8003625124377
 20
-184.5736106273393
 10
678.9519794570683
 20
-184.5919667288595
 10
679.1036021682522
 20
-184.6102742916062
 10
679.2552317754872
 20
-184.6285238291104
 10
679.4068694082707
 20
-184.6467058549026
 10
679.5585161961005
 20
-184.6648108825138
 10
679.7101732684741
 20
-184.6828294254746
 10
679.8618417548893
 20
-184.7007519973157
 10
680.0135227848438
 20
-184.7185691115679
 10
680.3230645098613
 20
-184.7546900795199
 10
680.6326324169565
 20
-184.7905875892508
 10
680.9422229466526
 20
-184.8262919481568
 10
681.2518325394744
 20
-184.8618334636344
 10
681.561457635945
 20
-184.89724244308
 10
681.8710946765888
 20
-184.9325491938898
 10
682.18074010193
 20
-184.9677840234603
 10
682.4903903524923
 20
-185.0029772391879
 10
682.8000418687994
 20
-185.0381591484688
 10
683.1096910913755
 20
-185.0733600586995
 10
683.4193344607448
 20
-185.1086102772765
 10
683.728968417431
 20
-185.1439401115959
 10
684.038589401958
 20
-185.1793798690542
 10
684.3481938548496
 20
-185.2149598570477
 10
684.6577782166303
 20
-185.2507103829729
 10
684.9673389278236
 20
-185.286661754226
 10
685.2768724289537
 20
-185.3228442782035
 10
685.5863751605443
 20
-185.3592882623017
 10
685.8958435631196
 20
-185.396024013917
 10
686.2052740772035
 20
-185.4330818404458
 10
686.4674421694764
 20
-185.464635000736
 10
686.7138713614057
 20
-185.4943207526059
 10
686.9463083177533
 20
-185.5223632732511
 10
687.1664997032824
 20
-185.5489867398673
 10
687.3761921827552
 20
-185.57441532965
 10
687.5771324209343
 20
-185.598873219795
 10
687.7710670825826
 20
-185.6225845874981
 10
687.9597428324624
 20
-185.6457736099548
 10
688.1449063353364
 20
-185.6686644643607
 10
688.3283042559667
 20
-185.6914813279115
 10
688.5116832591168
 20
-185.714448377803
 10
688.6967900095487
 20
-185.7377897912307
 10
688.8853711720251
 20
-185.7617297453904
 10
689.0791734113084
 20
-185.7864924174776
 10
689.2799433921614
 20
-185.8123019846881
 10
689.4894277793466
 20
-185.8393826242174
 10
689.7093732376267
 20
-185.8679585132614
 10
689.9415264317639
 20
-185.8982538290156
 10
690.1876340265213
 20
-185.9304927486757
 10
690.4494426866611
 20
-185.9648994494373
  0
ENDBLK
  5
4F
330
4C
100
AcDbEntity
  8
0
100
AcDbBlockEnd
  0
BLOCK
  5
5D
330
5B
100
AcDbEntity
  8
0
100
AcDbBlockBegin
  2
*E5
 70
     1
 71
     0
 10
0.0
 20
0.0
 30
0.0
  3
*E5
  1

  0
LWPOLYLINE
  5
5C
330
5B
100
AcDbEntity
  8
0
  6
Continuous
 62
     7
370
     0
100
AcDbPolyline
 90
      101
 70
   128
 43
0.0
 10
687.6381053756639
 20
-185.061184170002
 10
687.6561451358167
 20
-185.0668157547036
 10
687.6741834764092
 20
-185.072451902933
 10
687.6922203957117
 20
-185.0780926141455
 10
687.7102558919958
 20
-185.0837378877972
 10
687.728289963531
 20
-185.0893877233431
 10
687.746322608589
 20
-185.0950421202391
 10
687.7643538254405
 20
-185.100701077941
 10
687.7823836123559
 20
-185.1063645959041
 10
687.8004119676061
 20
-185.1120326735841
 10
687.8184388894618
 20
-185.1177053104366
 10
687.8364643761943
 20
-185.1233825059174
 10
687.8544884260734
 20
-185.1290642594818
 10
687.8725110373705
 20
-185.1347505705856
 10
687.890532208356
 20
-185.1404414386843
 10
687.9085519373012
 20
-185.1461368632337
 10
687.9265702224761
 20
-185.1518368436892
 10
687.9445870621523
 20
-185.1575413795065
 10
687.9626024545997
 20
-185.1632504701411
 10
687.9806163980896
 20
-185.1689641150488
 10
687.9986288908927
 20
-185.1746823136851
 10
688.0194871405345
 20
-185.1813825196578
 10
688.0403096342326
 20
-185.18820735619
 10
688.0611024256916
 20
-185.1951356331956
 10
688.0818715686169
 20
-185.2021461605891
 10
688.1026231167127
 20
-185.2092177482842
 10
688.123363123684
 20
-185.2163292061954
 10
688.1440976432365
 20
-185.2234593442367
 10
688.1648327290741
 20
-185.2305869723223
 10
688.185574434902
 20
-185.2376909003662
 10
688.206328814425
 20
-185.2447499382827
 10
688.2271019213482
 20
-185.2517428959858
 10
688.2478998093766
 20
-185.2586485833898
 10
688.2687285322144
 20
-185.2654458104088
 10
688.2895941435669
 20
-185.2721133869568
 10
688.3105026971391
 20
-185.278630122948
 10
688.3314602466355
 20
-185.2849748282966
 10
688.3524728457614
 20
-185.2911263129168
 10
688.3735465482213
 20
-185.2970633867226
 10
688.3946874077203
 20
-185.3027648596282
 10
688.4159014779632
 20
-185.3082095415477
 10
688.5069270802527
 20
-185.3310983322519
 10
688.5979146727544
 20
-185.3542293987731
 10
688.6888768552444
 20
-185.377535617348
 10
688.7798262274997
 20
-185.4009498642133
 10
688.8707753892957
 20
-185.4244050156056
 10
688.9617369404092
 20
-185.4478339477616
 10
689.0527234806168
 20
-185.471169536918
 10
689.1437476096947
 20
-185.4943446593114
 10
689.2348219274189
 20
-185.5172921911785
 10
689.3259590335659
 20
-185.5399450087559
 10
689.4171715279124
 20
-185.5622359882804
 10
689.5084720102344
 20
-185.5840980059886
 10
689.5998730803083
 20
-185.6054639381171
 10
689.6913873379103
 20
-185.6262666609027
 10
689.7830273828172
 20
-185.646439050582
 10
689.8748058148046
 20
-185.6659139833916
 10
689.9667352336496
 20
-185.6846243355684
 10
690.0588282391279
 20
-185.7025029833488
 10
690.1510974310164
 20
-185.7194828029695
 10
690.2435554090912
 20
-185.7354966706673
 10
690.3466726647481
 20
-185.7522185218172
 10
690.4499349572027
 20
-185.7679056866913
 10
690.5533311292912
 20
-185.7826363667429
 10
690.6568500238508
 20
-185.7964887634253
 10
690.7604804837176
 20
-185.8095410781918
 10
690.8642113517282
 20
-185.8218715124956
 10
690.9680314707193
 20
-185.8335582677903
 10
691.0719296835279
 20
-185.844679545529
 10
691.1758948329897
 20
-185.8553135471651
 10
691.2799157619418
 20
-185.8655384741517
 10
691.383981313221
 20
-185.8754325279425
 10
691.4880803296635
 20
-185.8850739099904
 10
691.5922016541061
 20
-185.894540821749
 10
691.6963341293853
 20
-185.9039114646714
 10
691.8004665983376
 20
-185.9132640402111
 10
691.9045879037997
 20
-185.9226767498213
 10
692.0086868886083
 20
-185.9322277949554
 10
692.1127523955997
 20
-185.9419953770666
 10
692.2167732676107
 20
-185.9520576976082
 10
692.3207383474779
 20
-185.9624929580337
 10
692.3276342355329
 20
-185.9631635968783
 10
692.3345398615517
 20
-185.9637636421605
 10
692.3414541435382
 20
-185.96429309388
 10
692.348375999497
 20
-185.9647519520369
 10
692.3553043474311
 20
-185.9651402166311
 10
692.3622381053451
 20
-185.9654578876628
 10
692.3691761912435
 20
-185.9657049651319
 10
692.3761175231297
 20
-185.9658814490385
 10
692.3830610190078
 20
-185.9659873393824
 10
692.3900055968816
 20
-185.9660226361636
 10
692.3969501747558
 20
-185.9659873393823
 10
692.4038936706338
 20
-185.9658814490385
 10
692.41083500252
 20
-185.9657049651319
 10
692.4177730884181
 20
-185.9654578876628
 10
692.4247068463326
 20
-185.9651402166311
 10
692.4316351942666
 20
-185.9647519520368
 10
692.4385570502253
 20
-185.96429309388
 10
692.4454713322118
 20
-185.9637636421604
 10
692.4523769582306
 20
-185.9631635968784
 10
692.4592728462856
 20
-185.9624929580337
  0
ENDBLK
  5
5E
330
5B
100
AcDbEntity
  8
0
100
AcDbBlockEnd
  0
BLOCK
  5
6A
330
68
100
AcDbEntity
  8
0
100
AcDbBlockBegin
  2
*E6
 70
     1
 71
     0
 10
0.0
 20
0.0
 30
0.0
  3
*E6
  1

  0
LWPOLYLINE
  5
69
330
68
100
AcDbEntity
  8
0
  6
Continuous
 62
     7
370
     0
100
AcDbPolyline
 90
      305
 70
   128
 43
0.0
 10
531.890373515889
 20
-209.7025015390657
 10
531.9913731119728
 20
-209.7069675157915
 10
532.0918909279511
 20
-209.7069671267207
 10
532.1919782241742
 20
-209.7028423757581
 10
532.2916862609934
 20
-209.6949352668092
 10
532.3910662987585
 20
-209.6835878037791
 10
532.4901695978198
 20
-209.6691419905729
 10
532.5890474185284
 20
-209.6519398310956
 10
532.6877510212349
 20
-209.6323233292527
 10
532.7863316662896
 20
-209.6106344889492
 10
532.8848406140429
 20
-209.5872153140901
 10
532.9833291248453
 20
-209.5624078085808
 10
533.0818484590477
 20
-209.5365539763263
 10
533.1804498770005
 20
-209.5099958212319
 10
533.2791846390539
 20
-209.4830753472028
 10
533.3781040055587
 20
-209.4561345581439
 10
533.4772592368654
 20
-209.4295154579606
 10
533.5767015933246
 20
-209.4035600505579
 10
533.6764823352867
 20
-209.3786103398411
 10
533.7766527231021
 20
-209.3550083297153
 10
533.9712103302866
 20
-209.3117135999173
 10
534.1661879388905
 20
-209.2701009230121
 10
534.361554904965
 20
-209.2300748005794
 10
534.5572805845618
 20
-209.1915397341994
 10
534.7533343337315
 20
-209.1544002254515
 10
534.9496855085249
 20
-209.1185607759156
 10
535.1463034649935
 20
-209.0839258871717
 10
535.3431575591886
 20
-209.0504000607995
 10
535.5402171471612
 20
-209.0178877983789
 10
535.7374515849622
 20
-208.9862936014895
 10
535.9348302286427
 20
-208.9555219717113
 10
536.1323224342542
 20
-208.9254774106241
 10
536.3298975578474
 20
-208.8960644198077
 10
536.5275249554737
 20
-208.8671875008419
 10
536.725173983184
 20
-208.8387511553065
 10
536.9228139970297
 20
-208.8106598847814
 10
537.1204143530617
 20
-208.7828181908463
 10
537.3179444073311
 20
-208.7551305750812
 10
537.515373515889
 20
-208.7275015390656
 10
537.7127559024234
 20
-208.6999662761432
 10
537.9101631164806
 20
-208.6726022417091
 10
538.1075905029
 20
-208.645377330422
 10
538.3050334065216
 20
-208.6182594369404
 10
538.5024871721844
 20
-208.5912164559225
 10
538.6999471447277
 20
-208.5642162820266
 10
538.8974086689913
 20
-208.5372268099113
 10
539.0948670898147
 20
-208.510215934235
 10
539.2923177520371
 20
-208.483151549656
 10
539.4897560004979
 20
-208.4560015508328
 10
539.6871771800367
 20
-208.4287338324235
 10
539.884576635493
 20
-208.4013162890869
 10
540.0819497117062
 20
-208.3737168154811
 10
540.2792917535158
 20
-208.3459033062647
 10
540.4765981057611
 20
-208.3178436560959
 10
540.6738641132816
 20
-208.2895057596332
 10
540.8710851209169
 20
-208.2608575115351
 10
541.0682564735062
 20
-208.2318668064597
 10
541.2653735158891
 20
-208.2025015390657
 10
541.462964090437
 20
-208.1723315505157
 10
541.6604146183487
 20
-208.141214769615
 10
541.8577454577853
 20
-208.1092906507229
 10
542.0549769669087
 20
-208.0766986481992
 10
542.2521295038802
 20
-208.0435782164035
 10
542.4492234268605
 20
-208.0100688096952
 10
542.6462790940118
 20
-207.976309882434
 10
542.8433168634951
 20
-207.9424408889795
 10
543.040357093472
 20
-207.9086012836914
 10
543.2374201421037
 20
-207.8749305209291
 10
543.4345263675517
 20
-207.8415680550523
 10
543.6316961279774
 20
-207.8086533404206
 10
543.8289497815422
 20
-207.7763258313935
 10
544.0263076864074
 20
-207.7447249823306
 10
544.2237902007345
 20
-207.7139902475916
 10
544.4214176826847
 20
-207.684261081536
 10
544.6192104904197
 20
-207.6556769385234
 10
544.8171889821007
 20
-207.6283772729134
 10
545.0153735158891
 20
-207.6025015390656
 10
545.4094015547214
 20
-207.5530682503032
 10
545.8035419542315
 20
-207.5045455505891
 10
546.1977887841679
 20
-207.4568906347215
 10
546.5921361142795
 20
-207.4100606974983
 10
546.9865780143144
 20
-207.3640129337173
 10
547.3811085540209
 20
-207.3187045381765
 10
547.7757218031477
 20
-207.2740927056738
 10
548.1704118314434
 20
-207.2301346310073
 10
548.5651727086563
 20
-207.1867875089748
 10
548.9599985045346
 20
-207.1440085343741
 10
549.3548832888271
 20
-207.1017549020034
 10
549.7498211312823
 20
-207.0599838066605
 10
550.1448061016483
 20
-207.0186524431433
 10
550.5398322696739
 20
-206.9777180062499
 10
550.9348937051072
 20
-206.9371376907781
 10
551.3299844776969
 20
-206.8968686915258
 10
551.7250986571917
 20
-206.856868203291
 10
552.1202303133396
 20
-206.8170934208716
 10
552.5153735158891
 20
-206.7775015390656
 10
552.9097095092861
 20
-206.7373856134953
 10
553.3039976040669
 20
-206.6961076214283
 10
553.6982541127072
 20
-206.6539626257715
 10
554.0924953476825
 20
-206.6112456894319
 10
554.4867376214685
 20
-206.5682518753162
 10
554.8809972465403
 20
-206.5252762463312
 10
555.2752905353739
 20
-206.482613865384
 10
555.6696338004448
 20
-206.4405597953815
 10
556.0640433542286
 20
-206.3994090992305
 10
556.4585355092004
 20
-206.3594568398377
 10
556.8531265778362
 20
-206.3209980801103
 10
557.2478328726115
 20
-206.284327882955
 10
557.6426707060017
 20
-206.2497413112787
 10
558.0376563904825
 20
-206.2175334279883
 10
558.4328062385295
 20
-206.1879992959907
 10
558.8281365626179
 20
-206.1614339781927
 10
559.2236636752239
 20
-206.1381325375013
 10
559.6194038888223
 20
-206.1183900368233
 10
560.0153735158891
 20
-206.1025015390656
 10
560.4107894030601
 20
-206.0869765849108
 10
560.8077644884014
 20
-206.0682336978362
 10
561.2061124442481
 20
-206.0465905521463
 10
561.605646942936
 20
-206.0223648221457
 10
562.0061816567998
 20
-205.9958741821386
 10
562.4075302581746
 20
-205.9674363064292
 10
562.809506419396
 20
-205.9373688693222
 10
563.2119238127993
 20
-205.9059895451219
 10
563.6145961107196
 20
-205.8736160081328
 10
564.017336985492
 20
-205.840565932659
 10
564.4199601094517
 20
-205.8071569930051
 10
564.822279154934
 20
-205.7737068634755
 10
565.2241077942743
 20
-205.7405332183746
 10
565.6252596998077
 20
-205.7079537320067
 10
566.0255485438693
 20
-205.6762860786762
 10
566.4247879987943
 20
-205.6458479326876
 10
566.8227917369182
 20
-205.6169569683453
 10
567.2193734305761
 20
-205.5899308599536
 10
567.6143467521031
 20
-205.5650872818168
 10
568.0109641356206
 20
-205.5422078447676
 10
568.4052553443804
 20
-205.5211494321163
 10
568.7974918668867
 20
-205.5016651175357
 10
569.1879451916441
 20
-205.4835079746992
 10
569.5768868071564
 20
-205.4664310772796
 10
569.9645882019273
 20
-205.4501874989498
 10
570.3513208644614
 20
-205.434530313383
 10
570.7373562832629
 20
-205.4192125942521
 10
571.1229659468356
 20
-205.4039874152303
 10
571.5084213436836
 20
-205.3886078499903
 10
571.8939939623112
 20
-205.3728269722053
 10
572.2799552912226
 20
-205.3563978555484
 10
572.6665768189216
 20
-205.3390735736923
 10
573.0541300339125
 20
-205.3206072003103
 10
573.4428864246995
 20
-205.3007518090753
 10
573.8331174797863
 20
-205.2792604736604
 10
574.2250946876777
 20
-205.2558862677384
 10
574.6190895368771
 20
-205.2303822649826
 10
575.0153735158891
 20
-205.2025015390657
 10
575.8034911166454
 20
-205.146614888968
 10
576.5918546399188
 20
-205.0944111304517
 10
577.3804472774895
 20
-205.045716963095
 10
578.1692522211385
 20
-205.0003590864765
 10
578.9582526626459
 20
-204.9581642001745
 10
579.7474317937916
 20
-204.9189590037672
 10
580.5367728063566
 20
-204.8825701968332
 10
581.3262588921212
 20
-204.8488244789509
 10
582.1158732428659
 20
-204.8175485496985
 10
582.9055990503705
 20
-204.7885691086544
 10
583.6954195064159
 20
-204.761712855397
 10
584.4853178027824
 20
-204.7368064895049
 10
585.2752771312502
 20
-204.7136767105561
 10
586.0652806835999
 20
-204.6921502181292
 10
586.8553116516118
 20
-204.6720537118025
 10
587.6453532270663
 20
-204.6532138911545
 10
588.4353886017437
 20
-204.6354574557633
 10
589.2254009674245
 20
-204.6186111052076
 10
590.0153735158891
 20
-204.6025015390656
 10
590.804708133688
 20
-204.5878805505058
 10
591.5940779860506
 20
-204.5755158917656
 10
592.3834795819051
 20
-204.5652960730447
 10
593.17290943018
 20
-204.5571096045429
 10
593.9623640398033
 20
-204.5508449964599
 10
594.7518399197028
 20
-204.5463907589951
 10
595.5413335788072
 20
-204.5436354023483
 10
596.3308415260447
 20
-204.5424674367192
 10
597.1203602703432
 20
-204.5427753723074
 10
597.9098863206308
 20
-204.5444477193125
 10
598.699416185836
 20
-204.5473729879342
 10
599.488946374887
 20
-204.5514396883723
 10
600.2784733967117
 20
-204.5565363308263
 10
601.0679937602384
 20
-204.5625514254959
 10
601.8575039743954
 20
-204.5693734825807
 10
602.6470005481108
 20
-204.5768910122804
 10
603.4364799903127
 20
-204.5849925247947
 10
604.2259388099295
 20
-204.5935665303232
 10
605.0153735158891
 20
-204.6025015390656
 10
605.8050049735049
 20
-204.6119424955355
 10
606.5946367292476
 20
-204.622129988099
 10
607.3842656369102
 20
-204.6331031954508
 10
608.1738885502862
 20
-204.6449012962854
 10
608.9635023231688
 20
-204.6575634692975
 10
609.7531038093507
 20
-204.6711288931815
 10
610.5426898626256
 20
-204.6856367466321
 10
611.3322573367866
 20
-204.701126208344
 10
612.121803085627
 20
-204.7176364570117
 10
612.9113239629396
 20
-204.7352066713297
 10
613.7008168225178
 20
-204.7538760299926
 10
614.4902785181549
 20
-204.7736837116952
 10
615.279705903644
 20
-204.7946688951318
 10
616.0690958327783
 20
-204.8168707589973
 10
616.8584451593509
 20
-204.8403284819859
 10
617.6477507371551
 20
-204.8650812427925
 10
618.4370094199842
 20
-204.8911682201116
 10
619.226218061631
 20
-204.9186285926378
 10
620.0153735158891
 20
-204.9475015390657
 10
620.8053135548164
 20
-204.9781599242279
 10
621.5951675592552
 20
-205.010790097029
 10
622.3849415675517
 20
-205.0452479036977
 10
623.1746416180531
 20
-205.0813891904628
 10
623.9642737491062
 20
-205.1190698035531
 10
624.7538439990569
 20
-205.1581455891972
 10
625.5433584062524
 20
-205.198472393624
 10
626.3328230090397
 20
-205.2399060630623
 10
627.1222438457651
 20
-205.2823024437408
 10
627.9116269547751
 20
-205.3255173818882
 10
628.7009783744168
 20
-205.3694067237333
 10
629.4903041430368
 20
-205.413826315505
 10
630.2796102989817
 20
-205.458632003432
 10
631.0689028805982
 20
-205.503679633743
 10
631.8581879262331
 20
-205.5488250526669
 10
632.6474714742328
 20
-205.5939241064323
 10
633.4367595629443
 20
-205.638832641268
 10
634.2260582307142
 20
-205.6834065034029
 10
635.0153735158891
 20
-205.7275015390656
 10
635.8050307122338
 20
-205.7709817072963
 10
636.5947319715726
 20
-205.8138818721413
 10
637.3844659198063
 20
-205.8563651475143
 10
638.1742211828351
 20
-205.8985946473295
 10
638.9639863865597
 20
-205.9407334855007
 10
639.7537501568793
 20
-205.9829447759416
 10
640.5435011196952
 20
-206.0253916325665
 10
641.3332279009076
 20
-206.0682371692891
 10
642.1229191264167
 20
-206.1116445000233
 10
642.9125634221223
 20
-206.155776738683
 10
643.7021494139254
 20
-206.2007969991822
 10
644.4916657277263
 20
-206.2468683954348
 10
645.2811009894249
 20
-206.2941540413547
 10
646.0704438249215
 20
-206.3428170508557
 10
646.8596828601169
 20
-206.3930205378519
 10
647.6488067209109
 20
-206.444927616257
 10
648.4378040332042
 20
-206.4987013999851
 10
649.2266634228968
 20
-206.55450500295
 10
650.0153735158891
 20
-206.6125015390657
 10
650.8058055479207
 20
-206.6728298028951
 10
651.5960769119076
 20
-206.7351530635901
 10
652.3861971699006
 20
-206.7993450244772
 10
653.1761758839502
 20
-206.8652793888827
 10
653.9660226161074
 20
-206.9328298601329
 10
654.7557469284219
 20
-207.0018701415539
 10
655.5453583829449
 20
-207.0722739364723
 10
656.3348665417269
 20
-207.1439149482144
 10
657.1242809668186
 20
-207.2166668801064
 10
657.9136112202702
 20
-207.2904034354747
 10
658.7028668641328
 20
-207.3649983176456
 10
659.4920574604566
 20
-207.4403252299455
 10
660.2811925712923
 20
-207.5162578757005
 10
661.0702817586905
 20
-207.5926699582373
 10
661.8593345847019
 20
-207.6694351808819
 10
662.6483606113766
 20
-207.7464272469606
 10
663.4373694007659
 20
-207.8235198598
 10
664.2263705149198
 20
-207.9005867227262
 10
665.0153735158891
 20
-207.9775015390656
 10
665.4105818302472
 20
-208.0163827292823
 10
665.8057100753468
 20
-208.0560510458351
 10
666.2007631365032
 20
-208.0964566009865
 10
666.5957458990316
 20
-208.1375495069993
 10
666.9906632482473
 20
-208.1792798761358
 10
667.3855200694649
 20
-208.2215978206586
 10
667.7803212479998
 20
-208.2644534528301
 10
668.1750716691676
 20
-208.3077968849132
 10
668.569776218283
 20
-208.3515782291703
 10
668.964439780661
 20
-208.3957475978637
 10
669.359067241617
 20
-208.4402551032562
 10
669.7536634864662
 20
-208.4850508576102
 10
670.1482334005235
 20
-208.5300849731884
 10
670.5427818691044
 20
-208.5753075622532
 10
670.9373137775236
 20
-208.6206687370671
 10
671.3318340110966
 20
-208.6661186098928
 10
671.7263474551385
 20
-208.7116072929928
 10
672.1208589949642
 20
-208.7570848986296
 10
672.5153735158891
 20
-208.8025015390656
 10
672.9103276084868
 20
-208.8480251402245
 10
673.3052584664289
 20
-208.893753829886
 10
673.7001659301352
 20
-208.9396875889007
 10
674.0950498400261
 20
-208.985826398119
 10
674.4899100365207
 20
-209.0321702383912
 10
674.8847463600385
 20
-209.0787190905675
 10
675.2795586509998
 20
-209.1254729354985
 10
675.6743467498242
 20
-209.1724317540346
 10
676.0691104969314
 20
-209.2195955270261
 10
676.4638497327408
 20
-209.2669642353232
 10
676.8585642976724
 20
-209.3145378597764
 10
677.2532540321458
 20
-209.3623163812361
 10
677.6479187765809
 20
-209.4102997805526
 10
678.0425583713973
 20
-209.4584880385764
 10
678.4371726570148
 20
-209.5068811361576
 10
678.831761473853
 20
-209.5554790541468
 10
679.2263246623316
 20
-209.6042817733943
 10
679.6208620628704
 20
-209.6532892747505
 10
680.0153735158891
 20
-209.7025015390657
  0
ENDBLK
  5
6B
330
68
100
AcDbEntity
  8
0
100
AcDbBlockEnd
  0
BLOCK
  5
71
330
6F
100
AcDbEntity
  8
0
100
AcDbBlockBegin
  2
*E7
 70
     1
 71
     0
 10
0.0
 20
0.0
 30
0.0
  3
*E7
  1

  0
LWPOLYLINE
  5
70
330
6F
100
AcDbEntity
  8
0
  6
Continuous
 62
     7
370
     0
100
AcDbPolyline
 90
      141
 70
   128
 43
0.0
 10
671.3861450510576
 20
-208.6730016750041
 10
671.4120118083534
 20
-208.6758447444489
 10
671.437877822663
 20
-208.6786946400524
 10
671.463743091285
 20
-208.6815513615106
 10
671.4896076115194
 20
-208.6844149085202
 10
671.5154713806647
 20
-208.6872852807771
 10
671.541334396021
 20
-208.6901624779779
 10
671.5671966548872
 20
-208.6930464998188
 10
671.593058154563
 20
-208.6959373459961
 10
671.6189188923471
 20
-208.6988350162061
 10
671.6447788655389
 20
-208.7017395101451
 10
671.6706380714384
 20
-208.7046508275095
 10
671.696496507344
 20
-208.7075689679955
 10
671.7223541705555
 20
-208.7104939312995
 10
671.748211058372
 20
-208.7134257171177
 10
671.7740671680931
 20
-208.7163643251466
 10
671.7999224970176
 20
-208.7193097550822
 10
671.8257770424455
 20
-208.7222620066211
 10
671.8516308016754
 20
-208.7252210794594
 10
671.877483772007
 20
-208.7281869732935
 10
671.9033359507396
 20
-208.7311596878197
 10
671.9537119272459
 20
-208.7369671112822
 10
672.0040861816962
 20
-208.7427893964363
 10
672.0544588785854
 20
-208.7486251243088
 10
672.1048301824103
 20
-208.7544728759273
 10
672.1552002576663
 20
-208.7603312323185
 10
672.2055692688491
 20
-208.7661987745099
 10
672.2559373804554
 20
-208.7720740835285
 10
672.3063047569806
 20
-208.7779557404014
 10
672.3566715629205
 20
-208.7838423261558
 10
672.4070379627707
 20
-208.7897324218188
 10
672.4574041210279
 20
-208.7956246084176
 10
672.5077702021875
 20
-208.8015174669793
 10
672.5581363707453
 20
-208.8074095785311
 10
672.6085027911972
 20
-208.8132995240999
 10
672.6588696280395
 20
-208.8191858847132
 10
672.7092370457676
 20
-208.8250672413978
 10
672.7596052088777
 20
-208.8309421751812
 10
672.8099742818655
 20
-208.8368092670902
 10
672.860344429227
 20
-208.8426670981522
 10
672.910715815458
 20
-208.8485142493942
 10
672.9810227748371
 20
-208.8566574666499
 10
673.0513317910438
 20
-208.8647830166935
 10
673.1216425550267
 20
-208.8728935515427
 10
673.1919547577357
 20
-208.8809917232154
 10
673.2622680901193
 20
-208.8890801837291
 10
673.3325822431274
 20
-208.8971615851019
 10
673.4028969077089
 20
-208.9052385793514
 10
673.4732117748131
 20
-208.9133138184956
 10
673.543526535389
 20
-208.921389954552
 10
673.6138408803856
 20
-208.9294696395385
 10
673.6841545007532
 20
-208.937555525473
 10
673.75446708744
 20
-208.9456502643733
 10
673.8247783313954
 20
-208.9537565082569
 10
673.8950879235687
 20
-208.9618769091419
 10
673.9653955549093
 20
-208.9700141190459
 10
674.035700916366
 20
-208.9781707899868
 10
674.1060036988886
 20
-208.9863495739824
 10
674.1763035934255
 20
-208.9945531230503
 10
674.2466002909266
 20
-209.0027840892084
 10
674.316893482341
 20
-209.0110451244746
 10
674.4501154119577
 20
-209.0267415955711
 10
674.5833352206356
 20
-209.0424560753519
 10
674.7165529686497
 20
-209.0581880395983
 10
674.8497687162769
 20
-209.0739369640922
 10
674.9829825237921
 20
-209.089702324615
 10
675.1161944514714
 20
-209.1054835969483
 10
675.2494045595912
 20
-209.1212802568739
 10
675.3826129084268
 20
-209.1370917801731
 10
675.5158195582541
 20
-209.1529176426278
 10
675.649024569349
 20
-209.1687573200192
 10
675.7822280019876
 20
-209.1846102881293
 10
675.9154299164454
 20
-209.2004760227396
 10
676.0486303729983
 20
-209.2163539996315
 10
676.1818294319221
 20
-209.2322436945867
 10
676.3150271534931
 20
-209.2481445833868
 10
676.4482235979865
 20
-209.2640561418135
 10
676.5814188256786
 20
-209.2799778456482
 10
676.714612896845
 20
-209.2959091706726
 10
676.8478058717617
 20
-209.3118495926684
 10
676.9809978107045
 20
-209.3277985874169
 10
677.1326336575116
 20
-209.3459972096156
 10
677.2842617169006
 20
-209.3642611306719
 10
677.4358831183685
 20
-209.3825808641166
 10
677.5874989914137
 20
-209.4009469234807
 10
677.7391104655327
 20
-209.4193498222945
 10
677.8907186702243
 20
-209.437780074089
 10
678.0423247349858
 20
-209.4562281923951
 10
678.1939297893146
 20
-209.4746846907432
 10
678.3455349627084
 20
-209.4931400826642
 10
678.4971413846647
 20
-209.5115848816889
 10
678.648750184682
 20
-209.5300096013481
 10
678.800362492257
 20
-209.5484047551724
 10
678.9519794368875
 20
-209.5667608566925
 10
679.1036021480714
 20
-209.5850684194392
 10
679.2552317553066
 20
-209.6033179569434
 10
679.40686938809
 20
-209.6214999827357
 10
679.5585161759197
 20
-209.6396050103469
 10
679.7101732482934
 20
-209.6576235533076
 10
679.8618417347086
 20
-209.6755461251487
 10
680.013522764663
 20
-209.693363239401
 10
680.3230644896805
 20
-209.729484207353
 10
680.6326323967756
 20
-209.7653817170839
 10
680.9422229264718
 20
-209.8010860759898
 10
681.2518325192937
 20
-209.8366275914675
 10
681.5614576157643
 20
-209.872036570913
 10
681.871094656408
 20
-209.9073433217228
 10
682.1807400817493
 20
-209.9425781512933
 10
682.4903903323116
 20
-209.9777713670209
 10
682.8000418486188
 20
-210.0129532763019
 10
683.1096910711948
 20
-210.0481541865326
 10
683.4193344405641
 20
-210.0834044051095
 10
683.7289683972501
 20
-210.1187342394289
 10
684.0385893817771
 20
-210.1541739968872
 10
684.3481938346689
 20
-210.1897539848807
 10
684.6577781964495
 20
-210.2255045108059
 10
684.9673389076427
 20
-210.261455882059
 10
685.276872408773
 20
-210.2976384060366
 10
685.5863751403635
 20
-210.3340823901348
 10
685.8958435429389
 20
-210.3708181417501
 10
686.2052740570227
 20
-210.4078759682789
 10
686.4674421492956
 20
-210.4394291285691
 10
686.713871341225
 20
-210.469114880439
 10
686.9463082975725
 20
-210.4971574010841
 10
687.1664996831016
 20
-210.5237808677003
 10
687.3761921625744
 20
-210.5492094574831
 10
687.5771324007535
 20
-210.5736673476281
 10
687.7710670624017
 20
-210.5973787153312
 10
687.9597428122817
 20
-210.6205677377878
 10
688.1449063151556
 20
-210.6434585921937
 10
688.3283042357859
 20
-210.6662754557445
 10
688.511683238936
 20
-210.689242505636
 10
688.696789989368
 20
-210.7125839190637
 10
688.8853711518442
 20
-210.7365238732234
 10
689.0791733911275
 20
-210.7612865453106
 10
689.2799433719806
 20
-210.7870961125211
 10
689.4894277591658
 20
-210.8141767520505
 10
689.7093732174458
 20
-210.8427526410945
 10
689.941526411583
 20
-210.8730479568486
 10
690.1876340063404
 20
-210.9052868765087
 10
690.4494426664803
 20
-210.9396935772704
  0
ENDBLK
  5
72
330
6F
100
AcDbEntity
  8
0
100
AcDbBlockEnd
  0
BLOCK
  5
87
330
85
100
AcDbEntity
  8
0
100
AcDbBlockBegin
  2
*E8
 70
     1
 71
     0
 10
0.0
 20
0.0
 30
0.0
  3
*E8
  1

  0
LWPOLYLINE
  5
86
330
85
100
AcDbEntity
  8
0
  6
Continuous
 62
     7
370
     0
100
AcDbPolyline
 90
      324
 70
   128
 43
0.0
 10
530.4344742731525
 20
-241.6406243676658
 10
530.4067405642633
 20
-241.4521645341145
 10
530.3988036216322
 20
-241.2672777255079
 10
530.4096106121369
 20
-241.0857681410303
 10
530.438108702655
 20
-240.9074399798661
 10
530.483245060064
 20
-240.7320974411996
 10
530.5439668512406
 20
-240.5595447242147
 10
530.6192212430628
 20
-240.3895860280962
 10
530.707955402408
 20
-240.2220255520282
 10
530.8091164961534
 20
-240.0566674951951
 10
530.9216516911763
 20
-239.8933160567808
 10
531.0445081543542
 20
-239.73177543597
 10
531.1766330525645
 20
-239.5718498319468
 10
531.3169735526847
 20
-239.4133434438955
 10
531.464476821592
 20
-239.2560604710005
 10
531.618090026164
 20
-239.0998051124459
 10
531.7767603332779
 20
-238.9443815674162
 10
531.9394349098112
 20
-238.7895940350955
 10
532.1050609226413
 20
-238.6352467146683
 10
532.2725855386454
 20
-238.4811438053186
 10
532.367557780631
 20
-238.393935740071
 10
532.4624819301395
 20
-238.3065257508508
 10
532.5574392577752
 20
-238.2190340463672
 10
532.6525110341433
 20
-238.1315808353292
 10
532.7477785298481
 20
-238.0442863264457
 10
532.8433230154939
 20
-237.9572707284255
 10
532.9392257616855
 20
-237.8706542499778
 10
533.035568039028
 20
-237.7845570998116
 10
533.1324311181256
 20
-237.6990994866357
 10
533.2298962695827
 20
-237.614401619159
 10
533.3280447640042
 20
-237.5305837060907
 10
533.4269578719947
 20
-237.4477659561396
 10
533.5267168641586
 20
-237.3660685780148
 10
533.6274030111009
 20
-237.2856117804251
 10
533.7290975834259
 20
-237.2065157720797
 10
533.8318818517381
 20
-237.1289007616872
 10
533.9358370866424
 20
-237.052886957957
 10
534.0410445587434
 20
-236.9785945695978
 10
534.1475855386454
 20
-236.9061438053186
 10
534.3379312928384
 20
-236.7803294633719
 10
534.5292581522207
 20
-236.6559861395499
 10
534.7215306799324
 20
-236.5330766082569
 10
534.9147134391143
 20
-236.4115636438972
 10
535.1087709929063
 20
-236.291410020875
 10
535.3036679044486
 20
-236.172578513594
 10
535.4993687368819
 20
-236.0550318964588
 10
535.6958380533465
 20
-235.9387329438736
 10
535.8930404169827
 20
-235.8236444302424
 10
536.0909403909304
 20
-235.7097291299693
 10
536.2895025383305
 20
-235.5969498174586
 10
536.488691422323
 20
-235.4852692671145
 10
536.6884716060481
 20
-235.374650253341
 10
536.8888076526465
 20
-235.2650555505425
 10
537.0896641252582
 20
-235.1564479331229
 10
537.2910055870236
 20
-235.0487901754866
 10
537.4927966010831
 20
-234.9420450520377
 10
537.695001730577
 20
-234.8361753371803
 10
537.8975855386454
 20
-234.7311438053186
 10
538.0903458248323
 20
-234.6323362180496
 10
538.2836620772266
 20
-234.5345569929224
 10
538.47752653973
 20
-234.4378128319306
 10
538.671931456245
 20
-234.342110437068
 10
538.8668690706734
 20
-234.2474565103282
 10
539.0623316269165
 20
-234.1538577537047
 10
539.258311368877
 20
-234.0613208691913
 10
539.4548005404567
 20
-233.969852558782
 10
539.6517913855573
 20
-233.87945952447
 10
539.8492761480809
 20
-233.7901484682491
 10
540.0472470719292
 20
-233.7019260921131
 10
540.2456964010046
 20
-233.6147990980556
 10
540.4446163792086
 20
-233.5287741880702
 10
540.6439992504434
 20
-233.4438580641506
 10
540.8438372586106
 20
-233.3600574282905
 10
541.0441226476127
 20
-233.2773789824836
 10
541.2448476613512
 20
-233.1958294287236
 10
541.4460045437281
 20
-233.115415469004
 10
541.6475855386454
 20
-233.0361438053186
 10
541.8413726581482
 20
-232.961361437813
 10
542.0356836067551
 20
-232.8879305363178
 10
542.230496165635
 20
-232.8158095779172
 10
542.4257881159573
 20
-232.7449570396961
 10
542.6215372388905
 20
-232.6753313987387
 10
542.8177213156031
 20
-232.6068911321293
 10
543.0143181272642
 20
-232.5395947169526
 10
543.211305455043
 20
-232.473400630293
 10
543.4086610801079
 20
-232.408267349235
 10
543.6063627836277
 20
-232.3441533508629
 10
543.8043883467716
 20
-232.2810171122612
 10
544.0027155507083
 20
-232.2188171105145
 10
544.2013221766066
 20
-232.1575118227071
 10
544.4001860056353
 20
-232.0970597259235
 10
544.5992848189633
 20
-232.0374192972482
 10
544.7985963977595
 20
-231.9785490137656
 10
544.9980985231928
 20
-231.9204073525601
 10
545.1977689764318
 20
-231.8629527907163
 10
545.3975855386456
 20
-231.8061438053186
 10
545.7900588499133
 20
-231.6950205611277
 10
546.1825425353354
 20
-231.5836717049121
 10
546.5750791471362
 20
-231.4723035537986
 10
546.9677112375406
 20
-231.361122424914
 10
547.3604813587727
 20
-231.2503346353851
 10
547.753432063057
 20
-231.1401465023386
 10
548.1466059026179
 20
-231.0307643429013
 10
548.5400454296804
 20
-230.9223944742001
 10
548.9337931964683
 20
-230.8152432133616
 10
549.3278917552065
 20
-230.7095168775126
 10
549.7223836581192
 20
-230.6054217837798
 10
550.1173114574311
 20
-230.5031642492903
 10
550.5127177053666
 20
-230.4029505911706
 10
550.9086449541503
 20
-230.3049871265475
 10
551.3051357560064
 20
-230.2094801725478
 10
551.7022326631594
 20
-230.1166360462983
 10
552.0999782278341
 20
-230.0266610649257
 10
552.4984150022547
 20
-229.9397615455569
 10
552.8975855386456
 20
-229.8561438053186
 10
553.2889334038663
 20
-229.7777449691737
 10
553.6809055499511
 20
-229.7027209263585
 10
554.0734582602157
 20
-229.6308523664784
 10
554.4665478179763
 20
-229.5619199791385
 10
554.8601305065487
 20
-229.4957044539437
 10
555.2541626092482
 20
-229.4319864804991
 10
555.648600409391
 20
-229.37054674841
 10
556.0434001902931
 20
-229.3111659472815
 10
556.4385182352702
 20
-229.2536247667185
 10
556.8339108276379
 20
-229.1977038963262
 10
557.2295342507123
 20
-229.1431840257097
 10
557.6253447878091
 20
-229.0898458444742
 10
558.0212987222443
 20
-229.0374700422246
 10
558.4173523373336
 20
-228.9858373085661
 10
558.8134619163927
 20
-228.9347283331038
 10
559.2095837427377
 20
-228.8839238054428
 10
559.6056740996843
 20
-228.8332044151882
 10
560.0016892705482
 20
-228.7823508519451
 10
560.3975855386456
 20
-228.7311438053186
 10
560.7914219898266
 20
-228.6800618671283
 10
561.185326834569
 20
-228.6292710191463
 10
561.5793056581446
 20
-228.5788701059547
 10
561.9733640458259
 20
-228.5289579721356
 10
562.3675075828844
 20
-228.4796334622709
 10
562.7617418545921
 20
-228.4309954209426
 10
563.1560724462211
 20
-228.3831426927329
 10
563.5505049430438
 20
-228.3361741222237
 10
563.9450449303317
 20
-228.2901885539972
 10
564.3396979933569
 20
-228.245284832635
 10
564.7344697173914
 20
-228.2015618027197
 10
565.1293656877076
 20
-228.1591183088329
 10
565.5243914895768
 20
-228.1180531955569
 10
565.9195527082717
 20
-228.0784653074736
 10
566.3148549290637
 20
-228.0404534891649
 10
566.7103037372251
 20
-228.0041165852131
 10
567.1059047180279
 20
-227.9695534402001
 10
567.5016634567442
 20
-227.9368628987079
 10
567.8975855386456
 20
-227.9061438053186
 10
568.2915969319756
 20
-227.8772205063281
 10
568.6857336763383
 20
-227.8495650484295
 10
569.0799878754485
 20
-227.8232112209461
 10
569.4743516330224
 20
-227.7981928132011
 10
569.8688170527751
 20
-227.7745436145173
 10
570.2633762384212
 20
-227.752297414218
 10
570.6580212936765
 20
-227.7314880016261
 10
571.0527443222568
 20
-227.712149166065
 10
571.447537427877
 20
-227.6943146968576
 10
571.8423927142521
 20
-227.6780183833269
 10
572.237302285098
 20
-227.6632940147962
 10
572.6322582441298
 20
-227.6501753805885
 10
573.0272526950629
 20
-227.6386962700269
 10
573.4222777416126
 20
-227.6288904724345
 10
573.8173254874939
 20
-227.6207917771344
 10
574.2123880364227
 20
-227.6144339734496
 10
574.607457492114
 20
-227.6098508507033
 10
575.0025259582832
 20
-227.6070761982186
 10
575.3975855386456
 20
-227.6061438053186
 10
576.1872285581572
 20
-227.6068775940109
 10
576.976890097977
 20
-227.6091005681408
 10
577.7665635695151
 20
-227.6128451397877
 10
578.5562423841823
 20
-227.6181437210313
 10
579.3459199533885
 20
-227.6250287239509
 10
580.1355896885437
 20
-227.6335325606258
 10
580.9252450010588
 20
-227.6436876431358
 10
581.7148793023439
 20
-227.6555263835605
 10
582.5044860038093
 20
-227.669081193979
 10
583.2940585168651
 20
-227.6843844864709
 10
584.0835902529219
 20
-227.7014686731158
 10
584.87307462339
 20
-227.7203661659932
 10
585.6625050396794
 20
-227.7411093771824
 10
586.4518749132009
 20
-227.763730718763
 10
587.2411776553643
 20
-227.7882626028144
 10
588.0304066775802
 20
-227.8147374414162
 10
588.8195553912589
 20
-227.8431876466479
 10
589.6086172078105
 20
-227.8736456305888
 10
590.3975855386456
 20
-227.9061438053186
 10
591.1879566341164
 20
-227.9409663084454
 10
591.9782187007092
 20
-227.9781816790894
 10
592.7683733825153
 20
-228.0176910442839
 10
593.5584223236256
 20
-228.0593955310622
 10
594.3483671681313
 20
-228.1031962664573
 10
595.1382095601226
 20
-228.1489943775022
 10
595.9279511436912
 20
-228.1966909912303
 10
596.717593562928
 20
-228.2461872346747
 10
597.5071384619239
 20
-228.2973842348685
 10
598.2965874847696
 20
-228.3501831188448
 10
599.0859422755565
 20
-228.4044850136369
 10
599.8752044783753
 20
-228.4601910462779
 10
600.6643757373172
 20
-228.5172023438009
 10
601.453457696473
 20
-228.5754200332391
 10
602.2424519999338
 20
-228.6347452416258
 10
603.0313602917904
 20
-228.6950790959938
 10
603.8201842161338
 20
-228.7563227233766
 10
604.6089254170554
 20
-228.8183772508071
 10
605.3975855386456
 20
-228.8811438053186
 10
606.1880319717238
 20
-228.94510255477
 10
606.9783665031586
 20
-229.010476251454
 10
607.7685898067916
 20
-229.0772316939089
 10
608.5587025564649
 20
-229.1453356806733
 10
609.3487054260197
 20
-229.2147550102854
 10
610.1385990892974
 20
-229.2854564812833
 10
610.9283842201397
 20
-229.3574068922055
 10
611.7180614923888
 20
-229.4305730415905
 10
612.5076315798857
 20
-229.5049217279764
 10
613.2970951564719
 20
-229.5804197499015
 10
614.0864528959895
 20
-229.6570339059042
 10
614.8757054722801
 20
-229.7347309945229
 10
615.6648535591848
 20
-229.8134778142958
 10
616.4538978305455
 20
-229.8932411637613
 10
617.2428389602039
 20
-229.9739878414577
 10
618.0316776220016
 20
-230.0556846459233
 10
618.82041448978
 20
-230.1382983756964
 10
619.6090502373808
 20
-230.2217958293154
 10
620.3975855386456
 20
-230.3061438053186
 10
621.1881685948048
 20
-230.3912612245351
 10
621.9787394667164
 20
-230.476723404171
 10
622.7692785521505
 20
-230.5626581202872
 10
623.5597662488778
 20
-230.6491931489451
 10
624.3501829546683
 20
-230.7364562662055
 10
625.1405090672913
 20
-230.8245752481294
 10
625.930724984518
 20
-230.9136778707781
 10
626.7208111041183
 20
-231.0038919102126
 10
627.5107478238623
 20
-231.095345142494
 10
628.3005155415201
 20
-231.1881653436832
 10
629.0900946548619
 20
-231.2824802898413
 10
629.8794655616581
 20
-231.3784177570296
 10
630.6686086596787
 20
-231.476105521309
 10
631.457504346694
 20
-231.5756713587406
 10
632.246133020474
 20
-231.6772430453854
 10
633.034475078789
 20
-231.7809483573045
 10
633.8225109194092
 20
-231.8869150705591
 10
634.6102209401047
 20
-231.9952709612101
 10
635.3975855386456
 20
-232.1061438053186
 10
636.1895059593065
 20
-232.2205192857111
 10
636.9809942864894
 20
-232.3377552964791
 10
637.7720787967595
 20
-232.457658561233
 10
638.5627877666833
 20
-232.580035803583
 10
639.3531494728261
 20
-232.7046937471393
 10
640.1431921917537
 20
-232.831439115512
 10
640.9329442000317
 20
-232.9600786323116
 10
641.7224337742263
 20
-233.0904190211483
 10
642.5116891909029
 20
-233.2222670056321
 10
643.3007387266271
 20
-233.3554293093733
 10
644.089610657965
 20
-233.4897126559823
 10
644.8783332614823
 20
-233.6249237690692
 10
645.6669348137445
 20
-233.7608693722442
 10
646.4554435913176
 20
-233.8973561891177
 10
647.2438878707671
 20
-234.0341909432997
 10
648.0322959286589
 20
-234.1711803584006
 10
648.8206960415589
 20
-234.3081311580306
 10
649.6091164860325
 20
-234.4448500657999
 10
650.3975855386456
 20
-234.5811438053187
 10
651.1880725450284
 20
-234.7175346501564
 10
651.9785486698289
 20
-234.8540494677527
 10
652.7689959642651
 20
-234.9907784279802
 10
653.5593964795534
 20
-235.1278117007114
 10
654.3497322669109
 20
-235.2652394558184
 10
655.139985377554
 20
-235.4031518631736
 10
655.9301378627003
 20
-235.5416390926495
 10
656.7201717735664
 20
-235.6807913141186
 10
657.5100691613696
 20
-235.820698697453
 10
658.2998120773261
 20
-235.9614514125252
 10
659.0893825726533
 20
-236.1031396292075
 10
659.8787626985683
 20
-236.2458535173726
 10
660.6679345062876
 20
-236.3896832468924
 10
661.4568800470283
 20
-236.5347189876396
 10
662.2455813720075
 20
-236.6810509094865
 10
663.0340205324417
 20
-236.8287691823055
 10
663.8221795795483
 20
-236.9779639759689
 10
664.610040564544
 20
-237.1287254603492
 10
665.3975855386456
 20
-237.2811438053186
 10
665.7945499094133
 20
-237.3590044581197
 10
666.1913075538779
 20
-237.4380001557447
 10
666.5878512761192
 20
-237.5181376628292
 10
666.9841738802174
 20
-237.599423744009
 10
667.380268170252
 20
-237.6818651639196
 10
667.776126950302
 20
-237.7654686871963
 10
668.1717430244476
 20
-237.8502410784749
 10
668.5671091967686
 20
-237.936189102391
 10
668.9622182713445
 20
-238.0233195235802
 10
669.3570630522547
 20
-238.111639106678
 10
669.7516363435791
 20
-238.20115461632
 10
670.1459309493976
 20
-238.291872817142
 10
670.5399396737894
 20
-238.3838004737792
 10
670.9336553208344
 20
-238.4769443508674
 10
671.3270706946123
 20
-238.5713112130422
 10
671.7201785992027
 20
-238.6669078249391
 10
672.1129718386853
 20
-238.7637409511938
 10
672.5054432171397
 20
-238.8618173564417
 10
672.8975855386456
 20
-238.9611438053186
 10
673.2952716927474
 20
-239.063198327966
 10
673.6926611616868
 20
-239.1664661894821
 10
674.0897484720224
 20
-239.2709458244625
 10
674.4865281503124
 20
-239.3766356675029
 10
674.8829947231145
 20
-239.4835341531989
 10
675.2791427169866
 20
-239.591639716146
 10
675.674966658487
 20
-239.7009507909399
 10
676.0704610741742
 20
-239.8114658121764
 10
676.4656204906059
 20
-239.9231832144507
 10
676.8604394343399
 20
-240.0361014323587
 10
677.2549124319347
 20
-240.1502189004958
 10
677.6490340099484
 20
-240.2655340534579
 10
678.0427986949387
 20
-240.3820453258404
 10
678.4362010134639
 20
-240.4997511522389
 10
678.829235492082
 20
-240.6186499672491
 10
679.2218966573512
 20
-240.7387402054665
 10
679.6141790358296
 20
-240.8600203014869
 10
680.0060771540749
 20
-240.9824886899057
 10
680.3975855386456
 20
-241.1061438053186
  0
ENDBLK
  5
88
330
85
100
AcDbEntity
  8
0
100
AcDbBlockEnd
  0
BLOCK
  5
8F
330
8D
100
AcDbEntity
  8
0
100
AcDbBlockBegin
  2
*E9
 70
     1
 71
     0
 10
0.0
 20
0.0
 30
0.0
  3
*E9
  1

  0
LWPOLYLINE
  5
8E
330
8D
100
AcDbEntity
  8
0
  6
Continuous
 62
     7
370
     0
100
AcDbPolyline
 90
      141
 70
   128
 43
0.0
 10
669.2405605886522
 20
-238.0889664696037
 10
669.349444296119
 20
-238.1120272867946
 10
669.4582834557722
 20
-238.1353070945721
 10
669.5670774123347
 20
-238.158805741042
 10
669.6758255105301
 20
-238.1825230743113
 10
669.7845270950814
 20
-238.2064589424858
 10
669.8931815107121
 20
-238.2306131936722
 10
670.0017881021457
 20
-238.2549856759768
 10
670.1103462141052
 20
-238.2795762375059
 10
670.2188551913139
 20
-238.3043847263659
 10
670.3273143784949
 20
-238.3294109906631
 10
670.435723120372
 20
-238.3546548785039
 10
670.5440807616684
 20
-238.3801162379947
 10
670.6523866471069
 20
-238.4057949172418
 10
670.7606401214111
 20
-238.4316907643515
 10
670.8688405293046
 20
-238.4578036274303
 10
670.9769872155101
 20
-238.4841333545843
 10
671.0850795247513
 20
-238.5106797939203
 10
671.1931168017513
 20
-238.5374427935442
 10
671.3010983912336
 20
-238.5644222015626
 10
671.4090236379212
 20
-238.5916178660818
 10
671.6581782454929
 20
-238.6547880440472
 10
671.9072762706382
 20
-238.7181839394861
 10
672.1563178612553
 20
-238.7818038956134
 10
672.4053031652439
 20
-238.8456462556443
 10
672.6542323305016
 20
-238.9097093627936
 10
672.9031055049281
 20
-238.9739915602765
 10
673.1519228364223
 20
-239.038491191308
 10
673.4006844728827
 20
-239.1032065991031
 10
673.649390562208
 20
-239.1681361268768
 10
673.8980412522973
 20
-239.233278117844
 10
674.1466366910495
 20
-239.29863091522
 10
674.3951770263632
 20
-239.3641928622196
 10
674.6436624061371
 20
-239.4299623020578
 10
674.8920929782701
 20
-239.4959375779498
 10
675.1404688906615
 20
-239.5621170331105
 10
675.3887902912095
 20
-239.6284990107549
 10
675.6370573278132
 20
-239.6950818540981
 10
675.8852701483713
 20
-239.7618639063549
 10
676.1334289007829
 20
-239.8288435107406
 10
676.3815337329465
 20
-239.8960190104701
 10
676.4865429195215
 20
-239.9246639296212
 10
676.5914680180226
 20
-239.953611457478
 10
676.6963137015372
 20
-239.9828442827224
 10
676.8010846431537
 20
-240.0123450940367
 10
676.905785515959
 20
-240.0420965801024
 10
677.0104209930417
 20
-240.0720814296018
 10
677.1149957474901
 20
-240.1022823312168
 10
677.2195144523915
 20
-240.1326819736294
 10
677.3239817808337
 20
-240.1632630455216
 10
677.4284024059046
 20
-240.1940082355753
 10
677.5327810006926
 20
-240.2249002324726
 10
677.6371222382851
 20
-240.2559217248954
 10
677.7414307917701
 20
-240.2870554015257
 10
677.8457113342354
 20
-240.3182839510455
 10
677.9499685387691
 20
-240.3495900621368
 10
678.0542070784587
 20
-240.3809564234814
 10
678.1584316263927
 20
-240.4123657237616
 10
678.2626468556583
 20
-240.4438006516591
 10
678.3668574393439
 20
-240.475243895856
 10
678.471068050537
 20
-240.5066781450344
 10
678.5693567511998
 20
-240.5363927989803
 10
678.6676041960329
 20
-240.5662427174709
 10
678.7658128591188
 20
-240.5962197126044
 10
678.8639852145415
 20
-240.6263155964794
 10
678.9621237363832
 20
-240.656522181194
 10
679.0602308987277
 20
-240.6868312788469
 10
679.1583091756586
 20
-240.7172347015364
 10
679.2563610412584
 20
-240.7477242613608
 10
679.3543889696105
 20
-240.7782917704186
 10
679.4523954347978
 20
-240.808929040808
 10
679.5503829109042
 20
-240.8396278846278
 10
679.6483538720125
 20
-240.8703801139761
 10
679.7463107922059
 20
-240.9011775409513
 10
679.8442561455674
 20
-240.9320119776519
 10
679.9421924061808
 20
-240.9628752361763
 10
680.0401220481285
 20
-240.9937591286228
 10
680.1380475454943
 20
-241.0246554670899
 10
680.235971372361
 20
-241.055556063676
 10
680.333896002812
 20
-241.0864527304794
 10
680.4318239109306
 20
-241.1173372795986
 10
680.635947765086
 20
-241.1817109616248
 10
680.8400618179124
 20
-241.246115838222
 10
681.0441658877339
 20
-241.3105524490179
 10
681.248259792876
 20
-241.3750213336411
 10
681.4523433516622
 20
-241.4395230317195
 10
681.6564163824177
 20
-241.5040580828812
 10
681.860478703467
 20
-241.5686270267546
 10
682.0645301331346
 20
-241.6332304029678
 10
682.2685704897447
 20
-241.6978687511488
 10
682.4725995916223
 20
-241.7625426109257
 10
682.6766172570918
 20
-241.827252521927
 10
682.8806233044781
 20
-241.8919990237805
 10
683.0846175521051
 20
-241.9567826561146
 10
683.2885998182977
 20
-242.0216039585573
 10
683.4925699213807
 20
-242.0864634707368
 10
683.696527679678
 20
-242.1513617322811
 10
683.900472911515
 20
-242.2162992828187
 10
684.1044054352153
 20
-242.2812766619775
 10
684.3083250691043
 20
-242.3462944093858
 10
684.5122316315063
 20
-242.4113530646716
 10
684.6346785013699
 20
-242.4504828992793
 10
684.757099005677
 20
-242.4896948612169
 10
684.8794956556029
 20
-242.5289811315647
 10
685.0018709623239
 20
-242.5683338914038
 10
685.1242274370148
 20
-242.6077453218145
 10
685.2465675908519
 20
-242.6472076038776
 10
685.368893935011
 20
-242.6867129186741
 10
685.4912089806672
 20
-242.7262534472844
 10
685.6135152389967
 20
-242.7658213707891
 10
685.7358152211748
 20
-242.805408870269
 10
685.8581114383776
 20
-242.8450081268049
 10
685.9804064017803
 20
-242.8846113214774
 10
686.1027026225589
 20
-242.924210635367
 10
686.2250026118888
 20
-242.9637982495546
 10
686.3473088809462
 20
-243.0033663451209
 10
686.4696239409061
 20
-243.0429071031464
 10
686.5919503029447
 20
-243.082412704712
 10
686.7142904782372
 20
-243.1218753308981
 10
686.8366469779598
 20
-243.1612871627858
 10
686.959022313288
 20
-243.2006403814554
 10
687.1441969029197
 20
-243.260020700631
 10
687.3025826261648
 20
-243.3105841152848
 10
687.4371544758485
 20
-243.3533150637204
 10
687.5508874447972
 20
-243.3891979842419
 10
687.6467565258357
 20
-243.4192173151528
 10
687.7277367117903
 20
-243.4443574947571
 10
687.7968029954867
 20
-243.4656029613587
 10
687.8569303697503
 20
-243.4839381532613
 10
687.9110938274068
 20
-243.5003475087688
 10
687.962268361282
 20
-243.5158154661849
 10
688.0134289642019
 20
-243.5313264638136
 10
688.0675506289917
 20
-243.5478649399586
 10
688.1276083484772
 20
-243.5664153329238
 10
688.1965771154842
 20
-243.5879620810129
 10
688.2774319228386
 20
-243.61348962253
 10
688.3731477633655
 20
-243.6439823957786
 10
688.4866996298913
 20
-243.6804248390627
 10
688.6210625152411
 20
-243.723801390686
 10
688.779211412241
 20
-243.7750964889524
 10
688.9641213137165
 20
-243.8352945721659
  0
ENDBLK
  5
90
330
8D
100
AcDbEntity
  8
0
100
AcDbBlockEnd
  0
BLOCK
  5
9E
330
9C
100
AcDbEntity
  8
0
100
AcDbBlockBegin
  2
*E10
 70
     1
 71
     0
 10
0.0
 20
0.0
 30
0.0
  3
*E10
  1

  0
LWPOLYLINE
  5
9D
330
9C
100
AcDbEntity
  8
0
  6
Continuous
 62
     7
370
     0
100
AcDbPolyline
 90
      101
 70
   128
 43
0.0
 10
688.0203173782396
 20
-243.539620564088
 10
688.0383571383924
 20
-243.5452521487896
 10
688.0563954789849
 20
-243.550888297019
 10
688.0744323982874
 20
-243.5565290082316
 10
688.0924678945713
 20
-243.5621742818832
 10
688.1105019661068
 20
-243.567824117429
 10
688.1285346111646
 20
-243.5734785143251
 10
688.1465658280162
 20
-243.579137472027
 10
688.1645956149317
 20
-243.5848009899901
 10
688.1826239701819
 20
-243.5904690676701
 10
688.2006508920375
 20
-243.5961417045226
 10
688.2186763787698
 20
-243.6018189000034
 10
688.2367004286491
 20
-243.6075006535679
 10
688.2547230399462
 20
-243.6131869646716
 10
688.2727442109317
 20
-243.6188778327704
 10
688.2907639398768
 20
-243.6245732573197
 10
688.3087822250518
 20
-243.6302732377752
 10
688.326799064728
 20
-243.6359777735925
 10
688.3448144571754
 20
-243.6416868642272
 10
688.3628284006654
 20
-243.6474005091348
 10
688.3808408934684
 20
-243.6531187077711
 10
688.4016991431101
 20
-243.6598189137438
 10
688.4225216368084
 20
-243.666643750276
 10
688.4433144282673
 20
-243.6735720272816
 10
688.4640835711926
 20
-243.6805825546751
 10
688.4848351192884
 20
-243.6876541423702
 10
688.5055751262597
 20
-243.6947656002813
 10
688.5263096458121
 20
-243.7018957383227
 10
688.5470447316499
 20
-243.7090233664083
 10
688.5677864374777
 20
-243.7161272944522
 10
688.5885408170005
 20
-243.7231863323686
 10
688.609313923924
 20
-243.7301792900719
 10
688.6301118119522
 20
-243.7370849774758
 10
688.65094053479
 20
-243.7438822044948
 10
688.6718061461426
 20
-243.7505497810428
 10
688.6927146997148
 20
-243.7570665170341
 10
688.7136722492112
 20
-243.7634112223826
 10
688.7346848483371
 20
-243.7695627070028
 10
688.7557585507969
 20
-243.7754997808086
 10
688.776899410296
 20
-243.7812012537142
 10
688.7981134805389
 20
-243.7866459356337
 10
688.8891390828284
 20
-243.8095347263378
 10
688.9801266753301
 20
-243.8326657928591
 10
689.0710888578201
 20
-243.855972011434
 10
689.1620382300753
 20
-243.8793862582993
 10
689.2529873918711
 20
-243.9028414096916
 10
689.3439489429848
 20
-243.9262703418476
 10
689.4349354831925
 20
-243.949605931004
 10
689.5259596122704
 20
-243.9727810533974
 10
689.6170339299946
 20
-243.9957285852645
 10
689.7081710361416
 20
-244.0183814028419
 10
689.7993835304881
 20
-244.0406723823664
 10
689.89068401281
 20
-244.0625344000746
 10
689.9820850828839
 20
-244.0839003322031
 10
690.073599340486
 20
-244.1047030549887
 10
690.1652393853929
 20
-244.124875444668
 10
690.2570178173803
 20
-244.1443503774777
 10
690.3489472362253
 20
-244.1630607296544
 10
690.4410402417036
 20
-244.1809393774348
 10
690.5333094335922
 20
-244.1979191970555
 10
690.6257674116669
 20
-244.2139330647533
 10
690.7288846673238
 20
-244.2306549159032
 10
690.8321469597785
 20
-244.2463420807774
 10
690.935543131867
 20
-244.2610727608289
 10
691.0390620264267
 20
-244.2749251575113
 10
691.1426924862932
 20
-244.2879774722778
 10
691.2464233543038
 20
-244.3003079065817
 10
691.350243473295
 20
-244.3119946618763
 10
691.4541416861035
 20
-244.3231159396151
 10
691.5581068355655
 20
-244.3337499412511
 10
691.6621277645175
 20
-244.3439748682377
 10
691.7661933157967
 20
-244.3538689220285
 10
691.8702923322393
 20
-244.3635103040765
 10
691.9744136566818
 20
-244.372977215835
 10
692.0785461319608
 20
-244.3823478587574
 10
692.1826786009133
 20
-244.3917004342971
 10
692.2867999063753
 20
-244.4011131439073
 10
692.390898891184
 20
-244.4106641890414
 10
692.4949643981754
 20
-244.4204317711526
 10
692.5989852701864
 20
-244.4304940916942
 10
692.7029503500536
 20
-244.4409293521197
 10
692.7098462381085
 20
-244.4415999909643
 10
692.7167518641273
 20
-244.4422000362465
 10
692.7236661461138
 20
-244.4427294879659
 10
692.7305880020725
 20
-244.4431883461229
 10
692.7375163500068
 20
-244.4435766107171
 10
692.7444501079208
 20
-244.4438942817488
 10
692.7513881938191
 20
-244.444141359218
 10
692.7583295257053
 20
-244.4443178431245
 10
692.7652730215834
 20
-244.4444237334684
 10
692.7722175994572
 20
-244.4444590302496
 10
692.7791621773315
 20
-244.4444237334684
 10
692.7861056732096
 20
-244.4443178431245
 10
692.7930470050956
 20
-244.444141359218
 10
692.7999850909938
 20
-244.4438942817488
 10
692.8069188489081
 20
-244.4435766107172
 10
692.8138471968424
 20
-244.4431883461228
 10
692.8207690528011
 20
-244.442729487966
 10
692.8276833347875
 20
-244.4422000362464
 10
692.8345889608063
 20
-244.4415999909644
 10
692.8414848488612
 20
-244.4409293521197
  0
ENDBLK
  5
9F
330
9C
100
AcDbEntity
  8
0
100
AcDbBlockEnd
  0
BLOCK
  5
B0
330
AE
100
AcDbEntity
  8
0
100
AcDbBlockBegin
  2
*E11
 70
     1
 71
     0
 10
0.0
 20
0.0
 30
0.0
  3
*E11
  1

  0
LWPOLYLINE
  5
AF
330
AE
100
AcDbEntity
  8
0
  6
Continuous
 62
     7
370
     0
100
AcDbPolyline
 90
      305
 70
   128
 43
0.0
 10
688.1918702063117
 20
-270.4742099535175
 10
688.0908706102281
 20
-270.4786759302434
 10
687.9903527942497
 20
-270.4786755411724
 10
687.8902654980263
 20
-270.4745507902099
 10
687.7905574612075
 20
-270.4666436812611
 10
687.6911774234427
 20
-270.455296218231
 10
687.5920741243809
 20
-270.4408504050246
 10
687.4931963036721
 20
-270.4236482455474
 10
687.3944927009658
 20
-270.4040317437045
 10
687.2959120559113
 20
-270.3823429034009
 10
687.197403108158
 20
-270.3589237285419
 10
687.0989145973552
 20
-270.3341162230325
 10
687.0003952631531
 20
-270.3082623907782
 10
686.9017938452005
 20
-270.2817042356837
 10
686.803059083147
 20
-270.2547837616546
 10
686.7041397166422
 20
-270.2278429725957
 10
686.6049844853355
 20
-270.2012238724124
 10
686.5055421288764
 20
-270.1752684650097
 10
686.4057613869143
 20
-270.1503187542929
 10
686.3055909990987
 20
-270.126716744167
 10
686.1110333919145
 20
-270.0834220143691
 10
685.9160557833103
 20
-270.0418093374638
 10
685.7206888172354
 20
-270.0017832150312
 10
685.524963137639
 20
-269.9632481486511
 10
685.3289093884698
 20
-269.9261086399033
 10
685.1325582136759
 20
-269.8902691903674
 10
684.935940257207
 20
-269.8556343016234
 10
684.7390861630121
 20
-269.8221084752513
 10
684.5420265750398
 20
-269.7895962128306
 10
684.3447921372386
 20
-269.7580020159413
 10
684.1474134935579
 20
-269.7272303861631
 10
683.9499212879467
 20
-269.6971858250758
 10
683.7523461643534
 20
-269.6677728342594
 10
683.5547187667271
 20
-269.6388959152937
 10
683.3570697390168
 20
-269.6104595697583
 10
683.1594297251711
 20
-269.5823682992332
 10
682.9618293691392
 20
-269.5545266052981
 10
682.7642993148697
 20
-269.5268389895329
 10
682.5668702063117
 20
-269.4992099535174
 10
682.3694878197775
 20
-269.4716746905949
 10
682.1720806057202
 20
-269.4443106561609
 10
681.9746532193004
 20
-269.4170857448738
 10
681.7772103156792
 20
-269.3899678513922
 10
681.5797565500167
 20
-269.3629248703742
 10
681.3822965774731
 20
-269.3359246964784
 10
681.1848350532093
 20
-269.3089352243631
 10
680.9873766323861
 20
-269.2819243486867
 10
680.789925970164
 20
-269.2548599641078
 10
680.5924877217029
 20
-269.2277099652845
 10
680.3950665421639
 20
-269.2004422468753
 10
680.1976670867078
 20
-269.1730247035387
 10
680.0002940104946
 20
-269.1454252299329
 10
679.8029519686852
 20
-269.1176117207165
 10
679.6056456164398
 20
-269.0895520705477
 10
679.4083796089193
 20
-269.061214174085
 10
679.2111586012841
 20
-269.0325659259868
 10
679.0139872486947
 20
-269.0035752209115
 10
678.8168702063117
 20
-268.9742099535175
 10
678.619279631764
 20
-268.9440399649675
 10
678.4218291038522
 20
-268.9129231840668
 10
678.2244982644153
 20
-268.8809990651746
 10
678.0272667552922
 20
-268.8484070626511
 10
677.830114218321
 20
-268.8152866308553
 10
677.6330202953403
 20
-268.7817772241469
 10
677.4359646281888
 20
-268.7480182968857
 10
677.2389268587057
 20
-268.7141493034314
 10
677.041886628729
 20
-268.6803096981432
 10
676.8448235800971
 20
-268.6466389353809
 10
676.647717354649
 20
-268.6132764695041
 10
676.4505475942235
 20
-268.5803617548723
 10
676.2532939406588
 20
-268.5480342458452
 10
676.0559360357936
 20
-268.5164333967824
 10
675.8584535214665
 20
-268.4856986620433
 10
675.6608260395161
 20
-268.4559694959877
 10
675.4630332317812
 20
-268.4273853529751
 10
675.2650547401001
 20
-268.4000856873652
 10
675.0668702063117
 20
-268.3742099535174
 10
674.6728421674798
 20
-268.3247766647549
 10
674.2787017679693
 20
-268.276253965041
 10
673.8844549380326
 20
-268.2285990491733
 10
673.4901076079213
 20
-268.1817691119501
 10
673.0956657078867
 20
-268.1357213481691
 10
672.7011351681798
 20
-268.0904129526282
 10
672.3065219190528
 20
-268.0458011201255
 10
671.9118318907573
 20
-268.001843045459
 10
671.5170710135448
 20
-267.9584959234265
 10
671.1222452176662
 20
-267.9157169488259
 10
670.7273604333735
 20
-267.8734633164551
 10
670.3324225909187
 20
-267.8316922211122
 10
669.9374376205526
 20
-267.7903608575951
 10
669.5424114525272
 20
-267.7494264207016
 10
669.1473500170937
 20
-267.7088461052298
 10
668.7522592445039
 20
-267.6685771059775
 10
668.3571450650093
 20
-267.6285766177428
 10
667.9620134088614
 20
-267.5888018353234
 10
667.5668702063117
 20
-267.5492099535174
 10
667.1725342129148
 20
-267.5090940279471
 10
666.778246118134
 20
-267.4678160358801
 10
666.3839896094935
 20
-267.4256710402232
 10
665.9897483745184
 20
-267.3829541038836
 10
665.5955061007326
 20
-267.3399602897679
 10
665.2012464756605
 20
-267.296984660783
 10
664.8069531868267
 20
-267.2543222798357
 10
664.4126099217559
 20
-267.2122682098333
 10
664.0182003679726
 20
-267.1711175136822
 10
663.6237082130004
 20
-267.1311652542895
 10
663.2291171443645
 20
-267.092706494562
 10
662.8344108495894
 20
-267.0560362974068
 10
662.4395730161991
 20
-267.0214497257305
 10
662.0445873317183
 20
-266.9892418424401
 10
661.6494374836715
 20
-266.9597077104424
 10
661.2541071595829
 20
-266.9331423926445
 10
660.8585800469772
 20
-266.9098409519531
 10
660.4628398333787
 20
-266.8900984512751
 10
660.0668702063117
 20
-266.8742099535174
 10
659.6714543191409
 20
-266.8586849993625
 10
659.2744792337995
 20
-266.839942112288
 10
658.8761312779526
 20
-266.8182989665981
 10
658.4765967792648
 20
-266.7940732365975
 10
658.0760620654013
 20
-266.7675825965903
 10
657.6747134640261
 20
-266.7391447208809
 10
657.2727373028044
 20
-266.7090772837739
 10
656.8703199094014
 20
-266.6776979595737
 10
656.4676476114813
 20
-266.6453244225845
 10
656.0649067367088
 20
-266.6122743471107
 10
655.662283612749
 20
-266.5788654074568
 10
655.2599645672667
 20
-266.5454152779272
 10
654.8581359279266
 20
-266.5122416328263
 10
654.4569840223933
 20
-266.4796621464584
 10
654.0566951783317
 20
-266.447994493128
 10
653.6574557234065
 20
-266.4175563471393
 10
653.2594519852828
 20
-266.388665382797
 10
652.8628702916249
 20
-266.3616392744053
 10
652.4678969700977
 20
-266.3367956962686
 10
652.0712795865804
 20
-266.3139162592194
 10
651.6769883778204
 20
-266.292857846568
 10
651.2847518553137
 20
-266.2733735319874
 10
650.8942985305567
 20
-266.255216389151
 10
650.5053569150448
 20
-266.2381394917314
 10
650.1176555202734
 20
-266.2218959134016
 10
649.7309228577391
 20
-266.2062387278347
 10
649.3448874389378
 20
-266.1909210087039
 10
648.9592777753653
 20
-266.175695829682
 10
648.5738223785171
 20
-266.160316264442
 10
648.1882497598895
 20
-266.144535386657
 10
647.8022884309784
 20
-266.1281062700001
 10
647.4156669032792
 20
-266.1107819881441
 10
647.0281136882884
 20
-266.0923156147621
 10
646.6393572975014
 20
-266.0724602235272
 10
646.2491262424145
 20
-266.0509688881122
 10
645.8571490345232
 20
-266.0275946821902
 10
645.4631541853237
 20
-266.0020906794343
 10
645.0668702063117
 20
-265.9742099535175
 10
644.2787526055555
 20
-265.9183233034198
 10
643.4903890822821
 20
-265.8661195449034
 10
642.7017964447111
 20
-265.8174253775467
 10
641.9129915010624
 20
-265.7720675009282
 10
641.1239910595552
 20
-265.7298726146263
 10
640.3348119284092
 20
-265.690667418219
 10
639.5454709158439
 20
-265.654278611285
 10
638.7559848300795
 20
-265.6205328934026
 10
637.9663704793352
 20
-265.5892569641503
 10
637.1766446718303
 20
-265.5602775231062
 10
636.3868242157849
 20
-265.5334212698488
 10
635.5969259194186
 20
-265.5085149039566
 10
634.8069665909507
 20
-265.4853851250078
 10
634.016963038601
 20
-265.4638586325809
 10
633.2269320705891
 20
-265.4437621262543
 10
632.4368904951345
 20
-265.4249223056062
 10
631.6468551204572
 20
-265.4071658702151
 10
630.8568427547763
 20
-265.3903195196594
 10
630.0668702063117
 20
-265.3742099535174
 10
629.2775355885129
 20
-265.3595889649575
 10
628.4881657361503
 20
-265.3472243062174
 10
627.6987641402956
 20
-265.3370044874965
 10
626.909334292021
 20
-265.3288180189947
 10
626.1198796823979
 20
-265.3225534109117
 10
625.3304038024979
 20
-265.3180991734468
 10
624.5409101433934
 20
-265.3153438168
 10
623.7514021961562
 20
-265.3141758511709
 10
622.961883451858
 20
-265.3144837867591
 10
622.17235740157
 20
-265.3161561337643
 10
621.3828275363647
 20
-265.319081402386
 10
620.593297347314
 20
-265.3231481028241
 10
619.8037703254893
 20
-265.328244745278
 10
619.0142499619626
 20
-265.3342598399476
 10
618.2247397478055
 20
-265.3410818970325
 10
617.4352431740901
 20
-265.3485994267322
 10
616.6457637318882
 20
-265.3567009392465
 10
615.8563049122714
 20
-265.365274944775
 10
615.0668702063117
 20
-265.3742099535174
 10
614.277238748696
 20
-265.3836509099873
 10
613.4876069929533
 20
-265.3938384025508
 10
612.6979780852905
 20
-265.4048116099025
 10
611.9083551719146
 20
-265.4166097107371
 10
611.1187413990324
 20
-265.4292718837493
 10
610.3291399128501
 20
-265.4428373076332
 10
609.539553859575
 20
-265.4573451610838
 10
608.7499863854142
 20
-265.4728346227957
 10
607.960440636574
 20
-265.4893448714635
 10
607.1709197592612
 20
-265.5069150857814
 10
606.381426899683
 20
-265.5255844444444
 10
605.5919652040459
 20
-265.5453921261469
 10
604.8025378185569
 20
-265.5663773095836
 10
604.0131478894226
 20
-265.588579173449
 10
603.2237985628501
 20
-265.6120368964377
 10
602.4344929850457
 20
-265.6367896572443
 10
601.6452343022167
 20
-265.6628766345634
 10
600.8560256605699
 20
-265.6903370070896
 10
600.0668702063117
 20
-265.7192099535174
 10
599.2769301673845
 20
-265.7498683386797
 10
598.4870761629458
 20
-265.7824985114809
 10
597.697302154649
 20
-265.8169563181494
 10
596.9076021041477
 20
-265.8530976049146
 10
596.1179699730951
 20
-265.8907782180049
 10
595.3283997231439
 20
-265.9298540036489
 10
594.5388853159482
 20
-265.9701808080757
 10
593.7494207131612
 20
-266.011614477514
 10
592.9599998764359
 20
-266.0540108581926
 10
592.1706167674257
 20
-266.0972257963399
 10
591.3812653477839
 20
-266.1411151381851
 10
590.5919395791641
 20
-266.1855347299568
 10
589.8026334232192
 20
-266.2303404178838
 10
589.0133408416027
 20
-266.2753880481948
 10
588.2240557959678
 20
-266.3205334671187
 10
587.4347722479681
 20
-266.365632520884
 10
586.6454841592566
 20
-266.4105410557198
 10
585.8561854914867
 20
-266.4551149178546
 10
585.0668702063117
 20
-266.4992099535174
 10
584.2772130099672
 20
-266.5426901217481
 10
583.4875117506283
 20
-266.585590286593
 10
582.6977778023943
 20
-266.628073561966
 10
581.9080225393657
 20
-266.6703030617813
 10
581.1182573356416
 20
-266.7124418999525
 10
580.3284935653214
 20
-266.7546531903934
 10
579.5387426025054
 20
-266.7971000470182
 10
578.7490158212931
 20
-266.8399455837408
 10
577.9593245957844
 20
-266.8833529144751
 10
577.1696803000784
 20
-266.9274851531348
 10
576.3800943082753
 20
-266.9725054136339
 10
575.5905779944746
 20
-267.0185768098866
 10
574.801142732776
 20
-267.0658624558064
 10
574.0117998972793
 20
-267.1145254653075
 10
573.222560862084
 20
-267.1647289523036
 10
572.4334370012899
 20
-267.2166360307087
 10
571.6444396889967
 20
-267.2704098144369
 10
570.8555802993042
 20
-267.3262134174018
 10
570.0668702063117
 20
-267.3842099535174
 10
569.2764381742802
 20
-267.4445382173469
 10
568.4861668102933
 20
-267.5068614780419
 10
567.6960465523
 20
-267.5710534389289
 10
566.9060678382507
 20
-267.6369878033344
 10
566.1162211060938
 20
-267.7045382745846
 10
565.326496793779
 20
-267.7735785560056
 10
564.5368853392558
 20
-267.843982350924
 10
563.7473771804738
 20
-267.9156233626661
 10
562.9579627553824
 20
-267.9883752945582
 10
562.1686325019305
 20
-268.0621118499265
 10
561.379376858068
 20
-268.1367067320974
 10
560.5901862617443
 20
-268.2120336443973
 10
559.8010511509085
 20
-268.2879662901523
 10
559.0119619635104
 20
-268.364378372689
 10
558.2229091374991
 20
-268.4411435953336
 10
557.4338831108242
 20
-268.5181356614124
 10
556.644874321435
 20
-268.5952282742518
 10
555.8558732072811
 20
-268.672295137178
 10
555.0668702063117
 20
-268.7492099535174
 10
554.6716618919537
 20
-268.7880911437341
 10
554.2765336468541
 20
-268.8277594602868
 10
553.8814805856974
 20
-268.8681650154382
 10
553.4864978231692
 20
-268.909257921451
 10
553.0915804739539
 20
-268.9509882905876
 10
552.696723652736
 20
-268.9933062351103
 10
552.3019224742008
 20
-269.0361618672819
 10
551.9071720530333
 20
-269.079505299365
 10
551.5124675039181
 20
-269.1232866436221
 10
551.1178039415398
 20
-269.1674560123154
 10
550.7231764805838
 20
-269.2119635177079
 10
550.3285802357348
 20
-269.256759272062
 10
549.9340103216773
 20
-269.3017933876401
 10
549.5394618530966
 20
-269.3470159767049
 10
549.1449299446773
 20
-269.3923771515189
 10
548.7504097111042
 20
-269.4378270243445
 10
548.3558962670625
 20
-269.4833157074445
 10
547.9613847272367
 20
-269.5287933130813
 10
547.5668702063117
 20
-269.5742099535174
 10
547.1719161137142
 20
-269.6197335546762
 10
546.776985255772
 20
-269.6654622443377
 10
546.3820777920654
 20
-269.7113960033524
 10
545.9871938821748
 20
-269.7575348125707
 10
545.5923336856804
 20
-269.8038786528429
 10
545.1974973621622
 20
-269.8504275050192
 10
544.8026850712008
 20
-269.8971813499503
 10
544.4078969723765
 20
-269.9441401684863
 10
544.0131332252696
 20
-269.9913039414778
 10
543.6183939894601
 20
-270.0386726497749
 10
543.2236794245284
 20
-270.0862462742281
 10
542.828989690055
 20
-270.1340247956878
 10
542.4343249456199
 20
-270.1820081950044
 10
542.0396853508034
 20
-270.2301964530282
 10
541.6450710651861
 20
-270.2785895506094
 10
541.2504822483479
 20
-270.3271874685986
 10
540.8559190598694
 20
-270.3759901878461
 10
540.4613816593305
 20
-270.4249976892023
 10
540.0668702063117
 20
-270.4742099535175
  0
ENDBLK
  5
B1
330
AE
100
AcDbEntity
  8
0
100
AcDbBlockEnd
  0
BLOCK
  5
B7
330
B5
100
AcDbEntity
  8
0
100
AcDbBlockBegin
  2
*E12
 70
     1
 71
     0
 10
0.0
 20
0.0
 30
0.0
  3
*E12
  1

  0
LWPOLYLINE
  5
B6
330
B5
100
AcDbEntity
  8
0
  6
Continuous
 62
     7
370
     0
100
AcDbPolyline
 90
      141
 70
   128
 43
0.0
 10
548.6960986711432
 20
-269.4447100894558
 10
548.6702319138473
 20
-269.4475531589006
 10
548.644365899538
 20
-269.4504030545041
 10
548.6185006309157
 20
-269.4532597759624
 10
548.5926361106817
 20
-269.456123322972
 10
548.5667723415361
 20
-269.4589936952288
 10
548.5409093261796
 20
-269.4618708924295
 10
548.5150470673135
 20
-269.4647549142705
 10
548.4891855676381
 20
-269.4676457604479
 10
548.4633248298538
 20
-269.4705434306579
 10
548.4374648566617
 20
-269.4734479245968
 10
548.4116056507626
 20
-269.4763592419613
 10
548.3857472148569
 20
-269.4792773824473
 10
548.3598895516454
 20
-269.4822023457513
 10
548.3340326638288
 20
-269.4851341315695
 10
548.3081765541078
 20
-269.4880727395984
 10
548.2823212251831
 20
-269.491018169534
 10
548.2564666797555
 20
-269.4939704210728
 10
548.2306129205253
 20
-269.4969294939111
 10
548.2047599501938
 20
-269.4998953877453
 10
548.1789077714612
 20
-269.5028681022715
 10
548.1285317949547
 20
-269.508675525734
 10
548.0781575405049
 20
-269.514497810888
 10
548.0277848436153
 20
-269.5203335387606
 10
547.9774135397907
 20
-269.5261812903791
 10
547.9270434645346
 20
-269.5320396467703
 10
547.8766744533514
 20
-269.5379071889616
 10
547.8263063417453
 20
-269.5437824979803
 10
547.7759389652203
 20
-269.5496641548532
 10
547.7255721592805
 20
-269.5555507406076
 10
547.6752057594299
 20
-269.5614408362705
 10
547.6248396011729
 20
-269.5673330228694
 10
547.5744735200135
 20
-269.5732258814311
 10
547.5241073514555
 20
-269.5791179929828
 10
547.4737409310035
 20
-269.5850079385517
 10
547.4233740941614
 20
-269.5908942991649
 10
547.3730066764332
 20
-269.5967756558496
 10
547.3226385133232
 20
-269.602650589633
 10
547.2722694403353
 20
-269.608517681542
 10
547.2218992929738
 20
-269.6143755126039
 10
547.1715279067428
 20
-269.6202226638459
 10
547.1012209473636
 20
-269.6283658811017
 10
547.0309119311573
 20
-269.6364914311453
 10
546.960601167174
 20
-269.6446019659945
 10
546.8902889644654
 20
-269.6527001376671
 10
546.8199756320814
 20
-269.6607885981808
 10
546.7496614790733
 20
-269.6688699995536
 10
546.6793468144921
 20
-269.6769469938032
 10
546.609031947388
 20
-269.6850222329473
 10
546.5387171868119
 20
-269.6930983690037
 10
546.4684028418149
 20
-269.7011780539902
 10
546.3980892214478
 20
-269.7092639399248
 10
546.327776634761
 20
-269.717358678825
 10
546.2574653908055
 20
-269.7254649227087
 10
546.187155798632
 20
-269.7335853235936
 10
546.1168481672917
 20
-269.7417225334977
 10
546.0465428058347
 20
-269.7498792044385
 10
545.9762400233125
 20
-269.7580579884341
 10
545.9059401287752
 20
-269.766261537502
 10
545.8356434312741
 20
-269.7744925036602
 10
545.7653502398598
 20
-269.7827535389263
 10
545.6321283102429
 20
-269.7984500100228
 10
545.4989085015656
 20
-269.8141644898036
 10
545.365690753551
 20
-269.82989645405
 10
545.2324750059244
 20
-269.845645378544
 10
545.0992611984088
 20
-269.8614107390667
 10
544.9660492707292
 20
-269.8771920114
 10
544.8328391626097
 20
-269.8929886713256
 10
544.6996308137742
 20
-269.908800194625
 10
544.5664241639467
 20
-269.9246260570795
 10
544.4332191528516
 20
-269.9404657344709
 10
544.3000157202133
 20
-269.9563187025811
 10
544.1668138057555
 20
-269.9721844371913
 10
544.0336133492026
 20
-269.9880624140832
 10
543.9004142902786
 20
-270.0039521090384
 10
543.7672165687078
 20
-270.0198529978386
 10
543.6340201242142
 20
-270.0357645562652
 10
543.5008248965223
 20
-270.0516862601
 10
543.3676308253557
 20
-270.0676175851244
 10
543.234437850439
 20
-270.0835580071201
 10
543.1012459114963
 20
-270.0995070018687
 10
542.9496100646891
 20
-270.1177056240673
 10
542.7979820053004
 20
-270.1359695451237
 10
542.6463606038322
 20
-270.1542892785684
 10
542.4947447307875
 20
-270.1726553379324
 10
542.343133256668
 20
-270.1910582367462
 10
542.1915250519763
 20
-270.2094884885408
 10
542.0399189872152
 20
-270.2279366068468
 10
541.8883139328864
 20
-270.246393105195
 10
541.7367087594926
 20
-270.264848497116
 10
541.5851023375358
 20
-270.2832932961406
 10
541.4334935375189
 20
-270.3017180157998
 10
541.281881229944
 20
-270.3201131696241
 10
541.1302642853133
 20
-270.3384692711442
 10
540.9786415741293
 20
-270.356776833891
 10
540.8270119668944
 20
-270.3750263713952
 10
540.6753743341108
 20
-270.3932083971874
 10
540.5237275462812
 20
-270.4113134247986
 10
540.3720704739073
 20
-270.4293319677594
 10
540.2204019874922
 20
-270.4472545396005
 10
540.0687209575378
 20
-270.4650716538527
 10
539.7591792325202
 20
-270.5011926218047
 10
539.4496113254252
 20
-270.5370901315356
 10
539.1400207957289
 20
-270.5727944904416
 10
538.8304112029075
 20
-270.6083360059192
 10
538.5207861064366
 20
-270.6437449853647
 10
538.2111490657925
 20
-270.6790517361745
 10
537.9015036404517
 20
-270.7142865657451
 10
537.5918533898895
 20
-270.7494797814727
 10
537.2822018735822
 20
-270.7846616907536
 10
536.9725526510058
 20
-270.8198626009843
 10
536.6629092816368
 20
-270.8551128195613
 10
536.3532753249507
 20
-270.8904426538807
 10
536.0436543404237
 20
-270.925882411339
 10
535.7340498875319
 20
-270.9614623993324
 10
535.4244655257513
 20
-270.9972129252577
 10
535.1149048145579
 20
-271.0331642965108
 10
534.8053713134279
 20
-271.0693468204884
 10
534.4958685818372
 20
-271.1057908045865
 10
534.1864001792619
 20
-271.1425265562019
 10
533.8769696651781
 20
-271.1795843827306
 10
533.614801572905
 20
-271.2111375430208
 10
533.3683723809761
 20
-271.2408232948907
 10
533.1359354246282
 20
-271.2688658155359
 10
532.9157440390994
 20
-271.2954892821521
 10
532.7060515596264
 20
-271.3209178719348
 10
532.5051113214471
 20
-271.3453757620799
 10
532.311176659799
 20
-271.3690871297829
 10
532.1225009099194
 20
-271.3922761522396
 10
531.9373374070453
 20
-271.4151670066455
 10
531.7539394864145
 20
-271.4379838701963
 10
531.5705604832648
 20
-271.4609509200878
 10
531.385453732833
 20
-271.4842923335156
 10
531.1968725703566
 20
-271.5082322876752
 10
531.0030703310732
 20
-271.5329949597623
 10
530.8023003502203
 20
-271.5588045269729
 10
530.592815963035
 20
-271.5858851665022
 10
530.3728705047552
 20
-271.6144610555462
 10
530.1407173106177
 20
-271.6447563713003
 10
529.8946097158604
 20
-271.6769952909605
 10
529.6328010557205
 20
-271.7114019917221
  0
ENDBLK
  5
B8
330
B5
100
AcDbEntity
  8
0
100
AcDbBlockEnd
  0
BLOCK
  5
CC
330
CA
100
AcDbEntity
  8
0
100
AcDbBlockBegin
  2
*E13
 70
     1
 71
     0
 10
0.0
 20
0.0
 30
0.0
  3
*E13
  1

  0
LWPOLYLINE
  5
CB
330
CA
100
AcDbEntity
  8
0
  6
Continuous
 62
     7
370
     0
100
AcDbPolyline
 90
      324
 70
   128
 43
0.0
 10
690.4121934743805
 20
-305.8522408003877
 10
690.43992718327
 20
-305.6637809668364
 10
690.4478641259011
 20
-305.4788941582298
 10
690.437057135396
 20
-305.2973845737521
 10
690.4085590448778
 20
-305.119056412588
 10
690.3634226874693
 20
-304.9437138739214
 10
690.3027008962923
 20
-304.7711611569366
 10
690.22744650447
 20
-304.6012024608181
 10
690.138712345125
 20
-304.4336419847501
 10
690.0375512513799
 20
-304.2682839279169
 10
689.9250160563568
 20
-304.1049324895027
 10
689.8021595931788
 20
-303.9433918686918
 10
689.6700346949684
 20
-303.7834662646687
 10
689.5296941948484
 20
-303.6249598766174
 10
689.3821909259411
 20
-303.4676769037223
 10
689.2285777213691
 20
-303.3114215451678
 10
689.0699074142551
 20
-303.1559980001381
 10
688.907232837722
 20
-303.0012104678174
 10
688.7416068248918
 20
-302.8468631473901
 10
688.5740822088875
 20
-302.6927602380405
 10
688.4791099669019
 20
-302.6055521727928
 10
688.3841858173936
 20
-302.5181421835727
 10
688.2892284897575
 20
-302.430650479089
 10
688.1941567133898
 20
-302.343197268051
 10
688.0988892176853
 20
-302.2559027591676
 10
688.0033447320391
 20
-302.1688871611474
 10
687.9074419858472
 20
-302.0822706826997
 10
687.8110997085049
 20
-301.9961735325335
 10
687.7142366294077
 20
-301.9107159193575
 10
687.6167714779504
 20
-301.8260180518809
 10
687.5186229835288
 20
-301.7422001388126
 10
687.4197098755384
 20
-301.6593823888616
 10
687.3199508833743
 20
-301.5776850107367
 10
687.2192647364323
 20
-301.497228213147
 10
687.1175701641073
 20
-301.4181322048015
 10
687.0147858957948
 20
-301.3405171944091
 10
686.9108306608906
 20
-301.2645033906789
 10
686.8056231887897
 20
-301.1902110023197
 10
686.6990822088875
 20
-301.1177602380405
 10
686.5087364546947
 20
-300.9919458960937
 10
686.3174095953124
 20
-300.8676025722718
 10
686.1251370676003
 20
-300.7446930409788
 10
685.9319543084188
 20
-300.6231800766191
 10
685.7378967546271
 20
-300.5030264535968
 10
685.5429998430843
 20
-300.3841949463159
 10
685.3472990106508
 20
-300.2666483291807
 10
685.1508296941865
 20
-300.1503493765954
 10
684.9536273305505
 20
-300.0352608629643
 10
684.7557273566026
 20
-299.9213455626912
 10
684.5571652092026
 20
-299.8085662501804
 10
684.3579763252101
 20
-299.6968856998363
 10
684.1581961414848
 20
-299.5862666860629
 10
683.9578600948867
 20
-299.4766719832644
 10
683.7570036222749
 20
-299.3680643658448
 10
683.5556621605094
 20
-299.2604066082085
 10
683.3538711464499
 20
-299.1536614847596
 10
683.1516660169561
 20
-299.0477917699022
 10
682.9490822088875
 20
-298.9427602380405
 10
682.7563219227007
 20
-298.8439526507715
 10
682.5630056703066
 20
-298.7461734256443
 10
682.3691412078028
 20
-298.6494292646524
 10
682.174736291288
 20
-298.5537268697898
 10
681.97979867686
 20
-298.4590729430501
 10
681.7843361206166
 20
-298.3654741864266
 10
681.5883563786557
 20
-298.2729373019133
 10
681.3918672070764
 20
-298.1814689915038
 10
681.194876361976
 20
-298.0910759571919
 10
680.9973915994523
 20
-298.001764900971
 10
680.7994206756039
 20
-297.913542524835
 10
680.6009713465286
 20
-297.8264155307775
 10
680.4020513683246
 20
-297.740390620792
 10
680.2026684970898
 20
-297.6554744968725
 10
680.0028304889224
 20
-297.5716738610124
 10
679.8025450999205
 20
-297.4889954152055
 10
679.601820086182
 20
-297.4074458614455
 10
679.400663203805
 20
-297.3270319017259
 10
679.1990822088876
 20
-297.2477602380405
 10
679.0052950893852
 20
-297.1729778705349
 10
678.810984140778
 20
-297.0995469690396
 10
678.6161715818977
 20
-297.0274260106391
 10
678.4208796315758
 20
-296.956573472418
 10
678.2251305086429
 20
-296.8869478314606
 10
678.0289464319299
 20
-296.8185075648512
 10
677.8323496202686
 20
-296.7512111496745
 10
677.6353622924901
 20
-296.6850170630149
 10
677.4380066674254
 20
-296.6198837819568
 10
677.2403049639053
 20
-296.5557697835848
 10
677.0422794007613
 20
-296.4926335449831
 10
676.8439521968248
 20
-296.4304335432364
 10
676.6453455709266
 20
-296.369128255429
 10
676.4464817418979
 20
-296.3086761586454
 10
676.2473829285698
 20
-296.2490357299701
 10
676.0480713497736
 20
-296.1901654464875
 10
675.8485692243404
 20
-296.1320237852821
 10
675.6488987711014
 20
-296.0745692234382
 10
675.4490822088875
 20
-296.0177602380405
 10
675.0566088976198
 20
-295.9066369938496
 10
674.6641252121979
 20
-295.795288137634
 10
674.2715886003966
 20
-295.6839199865204
 10
673.8789565099927
 20
-295.572738857636
 10
673.4861863887605
 20
-295.4619510681071
 10
673.0932356844761
 20
-295.3517629350605
 10
672.7000618449149
 20
-295.2423807756232
 10
672.3066223178528
 20
-295.1340109069219
 10
671.9128745510649
 20
-295.0268596460835
 10
671.5187759923266
 20
-294.9211333102344
 10
671.1242840894138
 20
-294.8170382165017
 10
670.7293562901019
 20
-294.7147806820122
 10
670.3339500421664
 20
-294.6145670238924
 10
669.938022793383
 20
-294.5166035592694
 10
669.5415319915269
 20
-294.4210966052697
 10
669.1444350843736
 20
-294.3282524790202
 10
668.7466895196991
 20
-294.2382774976476
 10
668.3482527452785
 20
-294.1513779782788
 10
667.9490822088875
 20
-294.0677602380405
 10
667.557734343667
 20
-293.9893614018955
 10
667.165762197582
 20
-293.9143373590804
 10
666.7732094873172
 20
-293.8424687992002
 10
666.3801199295567
 20
-293.7735364118604
 10
665.9865372409847
 20
-293.7073208866656
 10
665.5925051382849
 20
-293.643602913221
 10
665.1980673381419
 20
-293.5821631811319
 10
664.8032675572399
 20
-293.5227823800034
 10
664.4081495122631
 20
-293.4652411994404
 10
664.0127569198951
 20
-293.4093203290481
 10
663.6171334968208
 20
-293.3548004584316
 10
663.2213229597239
 20
-293.301462277196
 10
662.8253690252888
 20
-293.2490864749465
 10
662.4293154101997
 20
-293.197453741288
 10
662.0332058311405
 20
-293.1463447658257
 10
661.6370840047954
 20
-293.0955402381647
 10
661.2409936478489
 20
-293.0448208479101
 10
660.8449784769848
 20
-292.993967284667
 10
660.4490822088875
 20
-292.9427602380405
 10
660.0552457577066
 20
-292.8916782998502
 10
659.6613409129642
 20
-292.8408874518682
 10
659.2673620893883
 20
-292.7904865386765
 10
658.8733037017073
 20
-292.7405744048575
 10
658.479160164649
 20
-292.6912498949928
 10
658.0849258929409
 20
-292.6426118536645
 10
657.6905953013118
 20
-292.5947591254547
 10
657.2961628044893
 20
-292.5477905549456
 10
656.9016228172014
 20
-292.501804986719
 10
656.5069697541762
 20
-292.4569012653569
 10
656.1121980301414
 20
-292.4131782354415
 10
655.7173020598256
 20
-292.3707347415548
 10
655.3222762579562
 20
-292.3296696282787
 10
654.9271150392615
 20
-292.2900817401954
 10
654.5318128184695
 20
-292.2520699218868
 10
654.136364010308
 20
-292.215733017935
 10
653.7407630295052
 20
-292.181169872922
 10
653.3450042907891
 20
-292.1484793314298
 10
652.9490822088875
 20
-292.1177602380405
 10
652.5550708155577
 20
-292.0888369390499
 10
652.160934071195
 20
-292.0611814811514
 10
651.7666798720842
 20
-292.0348276536681
 10
651.3723161145106
 20
-292.009809245923
 10
650.9778506947584
 20
-291.9861600472393
 10
650.583291509112
 20
-291.9639138469398
 10
650.1886464538561
 20
-291.943104434348
 10
649.7939234252763
 20
-291.9237655987869
 10
649.3991303196563
 20
-291.9059311295795
 10
649.0042750332808
 20
-291.8896348160488
 10
648.609365462435
 20
-291.8749104475181
 10
648.2144095034033
 20
-291.8617918133104
 10
647.8194150524703
 20
-291.8503127027488
 10
647.4243900059207
 20
-291.8405069051564
 10
647.0293422600391
 20
-291.8324082098562
 10
646.6342797111104
 20
-291.8260504061715
 10
646.2392102554192
 20
-291.8214672834252
 10
645.84414178925
 20
-291.8186926309405
 10
645.4490822088875
 20
-291.8177602380405
 10
644.6594391893759
 20
-291.8184940267328
 10
643.869777649556
 20
-291.8207170008627
 10
643.0801041780177
 20
-291.8244615725096
 10
642.2904253633508
 20
-291.8297601537531
 10
641.5007477941449
 20
-291.8366451566728
 10
640.7110780589893
 20
-291.8451489933477
 10
639.9214227464741
 20
-291.8553040758577
 10
639.131788445189
 20
-291.8671428162824
 10
638.3421817437239
 20
-291.880697626701
 10
637.5526092306679
 20
-291.8960009191928
 10
636.7630774946111
 20
-291.9130851058377
 10
635.9735931241431
 20
-291.9319825987151
 10
635.1841627078536
 20
-291.9527258099042
 10
634.3947928343323
 20
-291.9753471514849
 10
633.6054900921688
 20
-291.9998790355363
 10
632.8162610699528
 20
-292.0263538741381
 10
632.0271123562743
 20
-292.0548040793698
 10
631.2380505397225
 20
-292.0852620633107
 10
630.4490822088875
 20
-292.1177602380405
 10
629.6587111134168
 20
-292.1525827411672
 10
628.8684490468239
 20
-292.1897981118113
 10
628.0782943650177
 20
-292.2293074770058
 10
627.2882454239075
 20
-292.2710119637841
 10
626.4983005794023
 20
-292.3148126991792
 10
625.7084581874105
 20
-292.3606108102241
 10
624.9187166038416
 20
-292.4083074239522
 10
624.129074184605
 20
-292.4578036673965
 10
623.3395292856094
 20
-292.5090006675904
 10
622.5500802627633
 20
-292.5617995515667
 10
621.7607254719766
 20
-292.6161014463588
 10
620.9714632691578
 20
-292.6718074789998
 10
620.1822920102159
 20
-292.7288187765228
 10
619.3932100510601
 20
-292.787036465961
 10
618.6042157475995
 20
-292.8463616743476
 10
617.8153074557428
 20
-292.9066955287157
 10
617.0264835313992
 20
-292.9679391560985
 10
616.2377423304779
 20
-293.029993683529
 10
615.4490822088875
 20
-293.0927602380405
 10
614.6586357758094
 20
-293.1567189874919
 10
613.8683012443745
 20
-293.2220926841758
 10
613.0780779407412
 20
-293.2888481266308
 10
612.2879651910682
 20
-293.3569521133953
 10
611.4979623215138
 20
-293.4263714430073
 10
610.7080686582357
 20
-293.4970729140052
 10
609.9182835273931
 20
-293.5690233249274
 10
609.1286062551443
 20
-293.6421894743124
 10
608.3390361676476
 20
-293.7165381606983
 10
607.5495725910611
 20
-293.7920361826234
 10
606.7602148515434
 20
-293.8686503386261
 10
605.9709622752531
 20
-293.9463474272449
 10
605.1818141883483
 20
-294.0250942470177
 10
604.3927699169876
 20
-294.1048575964832
 10
603.6038287873291
 20
-294.1856042741796
 10
602.8149901255315
 20
-294.2673010786451
 10
602.0262532577532
 20
-294.3499148084183
 10
601.2376175101524
 20
-294.4334122620373
 10
600.4490822088875
 20
-294.5177602380405
 10
599.6584991527283
 20
-294.602877657257
 10
598.8679282808167
 20
-294.6883398368929
 10
598.0773891953821
 20
-294.7742745530091
 10
597.2869014986551
 20
-294.8608095816669
 10
596.4964847928651
 20
-294.9480726989274
 10
595.7061586802417
 20
-295.0361916808513
 10
594.9159427630149
 20
-295.1252943034999
 10
594.1258566434147
 20
-295.2155083429345
 10
593.335919923671
 20
-295.3069615752159
 10
592.5461522060131
 20
-295.399781776405
 10
591.756573092671
 20
-295.4940967225632
 10
590.9672021858751
 20
-295.5900341897515
 10
590.1780590878543
 20
-295.6877219540308
 10
589.3891634008392
 20
-295.7872877914625
 10
588.6005347270592
 20
-295.8888594781073
 10
587.8121926687442
 20
-295.9925647900264
 10
587.024156828124
 20
-296.0985315032809
 10
586.2364468074285
 20
-296.206887393932
 10
585.4490822088875
 20
-296.3177602380405
 10
584.6571617882267
 20
-296.432135718433
 10
583.8656734610438
 20
-296.549371729201
 10
583.0745889507733
 20
-296.6692749939548
 10
582.2838799808497
 20
-296.7916522363048
 10
581.4935182747072
 20
-296.9163101798612
 10
580.7034755557794
 20
-297.043055548234
 10
579.9137235475011
 20
-297.1716950650335
 10
579.1242339733068
 20
-297.3020354538701
 10
578.3349785566304
 20
-297.433883438354
 10
577.5459290209059
 20
-297.5670457420952
 10
576.757057089568
 20
-297.7013290887041
 10
575.9683344860508
 20
-297.8365402017911
 10
575.1797329337885
 20
-297.9724858049661
 10
574.3912241562156
 20
-298.1089726218395
 10
573.602779876766
 20
-298.2458073760216
 10
572.8143718188742
 20
-298.3827967911225
 10
572.0259717059744
 20
-298.5197475907525
 10
571.2375512615007
 20
-298.6564664985218
 10
570.4490822088875
 20
-298.7927602380406
 10
569.658595202505
 20
-298.9291510828783
 10
568.868119077704
 20
-299.0656659004746
 10
568.0776717832678
 20
-299.2023948607021
 10
567.2872712679797
 20
-299.3394281334333
 10
566.4969354806226
 20
-299.4768558885403
 10
565.706682369979
 20
-299.6147682958955
 10
564.9165298848326
 20
-299.7532555253714
 10
564.1264959739665
 20
-299.8924077468404
 10
563.3365985861637
 20
-300.0323151301749
 10
562.5468556702069
 20
-300.1730678452471
 10
561.7572851748796
 20
-300.3147560619294
 10
560.9679050489649
 20
-300.4574699500944
 10
560.1787332412455
 20
-300.6012996796143
 10
559.3897877005048
 20
-300.7463354203615
 10
558.6010863755257
 20
-300.8926673422084
 10
557.8126472150914
 20
-301.0403856150273
 10
557.0244881679848
 20
-301.1895804086908
 10
556.2366271829892
 20
-301.340341893071
 10
555.4490822088875
 20
-301.4927602380405
 10
555.05211783812
 20
-301.5706208908416
 10
554.6553601936553
 20
-301.6496165884666
 10
554.2588164714135
 20
-301.7297540955511
 10
553.8624938673156
 20
-301.811040176731
 10
553.4663995772814
 20
-301.8934815966415
 10
553.070540797231
 20
-301.9770851199181
 10
552.6749247230853
 20
-302.0618575111967
 10
552.2795585507645
 20
-302.1478055351129
 10
551.8844494761888
 20
-302.2349359563021
 10
551.4896046952784
 20
-302.3232555393999
 10
551.0950314039538
 20
-302.4127710490419
 10
550.7007367981356
 20
-302.5034892498638
 10
550.3067280737437
 20
-302.595416906501
 10
549.9130124266987
 20
-302.6885607835893
 10
549.519597052921
 20
-302.7829276457641
 10
549.1264891483304
 20
-302.878524257661
 10
548.733695908848
 20
-302.9753573839157
 10
548.3412245303934
 20
-303.0734337891636
 10
547.9490822088875
 20
-303.1727602380405
 10
547.5513960547859
 20
-303.2748147606879
 10
547.1540065858463
 20
-303.378082622204
 10
546.7569192755105
 20
-303.4825622571843
 10
546.3601395972207
 20
-303.5882521002248
 10
545.963673024419
 20
-303.6951505859208
 10
545.5675250305464
 20
-303.8032561488679
 10
545.1717010890458
 20
-303.9125672236618
 10
544.7762066733587
 20
-304.0230822448982
 10
544.3810472569273
 20
-304.1347996471727
 10
543.986228313193
 20
-304.2477178650806
 10
543.5917553155982
 20
-304.3618353332177
 10
543.1976337375847
 20
-304.4771504861798
 10
542.8038690525943
 20
-304.5936617585622
 10
542.4104667340691
 20
-304.7113675849608
 10
542.017432255451
 20
-304.830266399971
 10
541.6247710901819
 20
-304.9503566381884
 10
541.2324887117036
 20
-305.0716367342088
 10
540.8405905934582
 20
-305.1941051226275
 10
540.4490822088875
 20
-305.3177602380405
  0
ENDBLK
  5
CD
330
CA
100
AcDbEntity
  8
0
100
AcDbBlockEnd
  0
BLOCK
  5
D4
330
D2
100
AcDbEntity
  8
0
100
AcDbBlockBegin
  2
*E14
 70
     1
 71
     0
 10
0.0
 20
0.0
 30
0.0
  3
*E14
  1

  0
LWPOLYLINE
  5
D3
330
D2
100
AcDbEntity
  8
0
  6
Continuous
 62
     7
370
     0
100
AcDbPolyline
 90
      141
 70
   128
 43
0.0
 10
551.6061071588808
 20
-302.3005829023256
 10
551.4972234514139
 20
-302.3236437195165
 10
551.3883842917611
 20
-302.3469235272939
 10
551.2795903351983
 20
-302.3704221737639
 10
551.1708422370033
 20
-302.3941395070332
 10
551.0621406524516
 20
-302.4180753752077
 10
550.9534862368207
 20
-302.442229626394
 10
550.8448796453873
 20
-302.4666021086987
 10
550.7363215334279
 20
-302.4911926702278
 10
550.6278125562192
 20
-302.5160011590878
 10
550.519353369038
 20
-302.5410274233849
 10
550.4109446271609
 20
-302.5662713112258
 10
550.3025869858648
 20
-302.5917326707166
 10
550.1942811004262
 20
-302.6174113499636
 10
550.0860276261218
 20
-302.6433071970733
 10
549.9778272182286
 20
-302.6694200601522
 10
549.8696805320228
 20
-302.6957497873062
 10
549.7615882227818
 20
-302.7222962266421
 10
549.6535509457816
 20
-302.7490592262661
 10
549.5455693562994
 20
-302.7760386342845
 10
549.4376441096118
 20
-302.8032342988037
 10
549.18848950204
 20
-302.866404476769
 10
548.9393914768949
 20
-302.929800372208
 10
548.6903498862777
 20
-302.9934203283352
 10
548.4413645822896
 20
-303.0572626883662
 10
548.1924354170314
 20
-303.1213257955155
 10
547.9435622426047
 20
-303.1856079929984
 10
547.6947449111108
 20
-303.2501076240299
 10
547.4459832746505
 20
-303.314823031825
 10
547.197277185325
 20
-303.3797525595987
 10
546.9486264952355
 20
-303.4448945505659
 10
546.7000310564836
 20
-303.5102473479419
 10
546.4514907211701
 20
-303.5758092949415
 10
546.203005341396
 20
-303.6415787347797
 10
545.9545747692628
 20
-303.7075540106717
 10
545.7061988568717
 20
-303.7737334658324
 10
545.4578774563236
 20
-303.8401154434767
 10
545.2096104197199
 20
-303.90669828682
 10
544.9613975991616
 20
-303.9734803390768
 10
544.7132388467501
 20
-304.0404599434625
 10
544.4651340145865
 20
-304.107635443192
 10
544.3601248280114
 20
-304.1362803623431
 10
544.2551997295105
 20
-304.1652278902
 10
544.1503540459958
 20
-304.1944607154443
 10
544.0455831043798
 20
-304.2239615267586
 10
543.9408822315742
 20
-304.2537130128242
 10
543.8362467544911
 20
-304.2836978623236
 10
543.7316720000429
 20
-304.3138987639387
 10
543.6271532951417
 20
-304.3442984063514
 10
543.5226859666994
 20
-304.3748794782435
 10
543.4182653416282
 20
-304.4056246682972
 10
543.3138867468405
 20
-304.4365166651945
 10
543.2095455092481
 20
-304.4675381576173
 10
543.1052369557631
 20
-304.4986718342476
 10
543.0009564132977
 20
-304.5299003837673
 10
542.8966992087642
 20
-304.5612064948587
 10
542.7924606690742
 20
-304.5925728562033
 10
542.6882361211406
 20
-304.6239821564835
 10
542.5840208918747
 20
-304.655417084381
 10
542.4798103081891
 20
-304.6868603285779
 10
542.375599696996
 20
-304.7182945777562
 10
542.2773109963331
 20
-304.7480092317022
 10
542.1790635515003
 20
-304.7778591501928
 10
542.0808548884143
 20
-304.8078361453263
 10
541.9826825329919
 20
-304.8379320292013
 10
541.8845440111498
 20
-304.868138613916
 10
541.786436848805
 20
-304.8984477115688
 10
541.6883585718746
 20
-304.9288511342583
 10
541.5903067062749
 20
-304.9593406940826
 10
541.4922787779228
 20
-304.9899082031405
 10
541.3942723127349
 20
-305.0205454735299
 10
541.2962848366287
 20
-305.0512443173496
 10
541.1983138755205
 20
-305.081996546698
 10
541.1003569553272
 20
-305.1127939736732
 10
541.0024116019655
 20
-305.1436284103738
 10
540.9044753413525
 20
-305.1744916688982
 10
540.8065456994045
 20
-305.2053755613447
 10
540.7086202020389
 20
-305.2362718998119
 10
540.610696375172
 20
-305.2671724963978
 10
540.512771744721
 20
-305.2980691632013
 10
540.4148438366025
 20
-305.3289537123205
 10
540.210719982447
 20
-305.3933273943467
 10
540.0066059296208
 20
-305.4577322709438
 10
539.802501859799
 20
-305.5221688817398
 10
539.5984079546574
 20
-305.5866377663631
 10
539.3943243958709
 20
-305.6511394644413
 10
539.1902513651152
 20
-305.7156745156031
 10
538.9861890440661
 20
-305.7802434594766
 10
538.7821376143987
 20
-305.8448468356897
 10
538.5780972577884
 20
-305.9094851838706
 10
538.3740681559105
 20
-305.9741590436476
 10
538.1700504904411
 20
-306.0388689546489
 10
537.9660444430551
 20
-306.1036154565024
 10
537.7620501954281
 20
-306.1683990888364
 10
537.5580679292352
 20
-306.2332203912791
 10
537.3540978261525
 20
-306.2980799034586
 10
537.1501400678549
 20
-306.362978165003
 10
536.9461948360182
 20
-306.4279157155407
 10
536.7422623123175
 20
-306.4928930946994
 10
536.5383426784286
 20
-306.5579108421077
 10
536.3344361160267
 20
-306.6229694973935
 10
536.2119892461631
 20
-306.6620993320012
 10
536.0895687418562
 20
-306.7013112939388
 10
535.96717209193
 20
-306.7405975642866
 10
535.8447967852096
 20
-306.7799503241257
 10
535.7224403105183
 20
-306.8193617545364
 10
535.6001001566809
 20
-306.8588240365996
 10
535.4777738125222
 20
-306.898329351396
 10
535.3554587668659
 20
-306.9378698800063
 10
535.2331525085365
 20
-306.977437803511
 10
535.110852526358
 20
-307.0170253029909
 10
534.9885563091556
 20
-307.0566245595268
 10
534.8662613457528
 20
-307.0962277541993
 10
534.7439651249742
 20
-307.1358270680889
 10
534.6216651356441
 20
-307.1754146822765
 10
534.499358866587
 20
-307.2149827778428
 10
534.377043806627
 20
-307.2545235358683
 10
534.2547174445886
 20
-307.2940291374339
 10
534.1323772692957
 20
-307.33349176362
 10
534.0100207695731
 20
-307.3729035955077
 10
533.8876454342451
 20
-307.4122568141773
 10
533.7024708446131
 20
-307.4716371333529
 10
533.5440851213684
 20
-307.5222005480067
 10
533.4095132716843
 20
-307.5649314964423
 10
533.2957803027361
 20
-307.6008144169638
 10
533.1999112216972
 20
-307.6308337478746
 10
533.1189310357424
 20
-307.655973927479
 10
533.0498647520465
 20
-307.6772193940806
 10
532.989737377783
 20
-307.6955545859832
 10
532.9355739201263
 20
-307.7119639414906
 10
532.8843993862508
 20
-307.7274318989067
 10
532.8332387833312
 20
-307.7429428965355
 10
532.7791171185415
 20
-307.7594813726805
 10
532.7190593990559
 20
-307.7780317656457
 10
532.6500906320488
 20
-307.7995785137348
 10
532.5692358246946
 20
-307.8251060552519
 10
532.4735199841674
 20
-307.8555988285004
 10
532.3599681176419
 20
-307.8920412717845
 10
532.2256052322919
 20
-307.9354178234079
 10
532.067456335292
 20
-307.9867129216743
 10
531.8825464338165
 20
-308.0469110048878
  0
ENDBLK
  5
D5
330
D2
100
AcDbEntity
  8
0
100
AcDbBlockEnd
  0
BLOCK
  5
E3
330
E1
100
AcDbEntity
  8
0
100
AcDbBlockBegin
  2
*E15
 70
     1
 71
     0
 10
0.0
 20
0.0
 30
0.0
  3
*E15
  1

  0
LWPOLYLINE
  5
E2
330
E1
100
AcDbEntity
  8
0
  6
Continuous
 62
     7
370
     0
100
AcDbPolyline
 90
      101
 70
   128
 43
0.0
 10
532.8263503692934
 20
-307.7512369968098
 10
532.8083106091406
 20
-307.7568685815115
 10
532.7902722685484
 20
-307.7625047297408
 10
532.7722353492456
 20
-307.7681454409534
 10
532.754199852962
 20
-307.773790714605
 10
532.7361657814264
 20
-307.779440550151
 10
532.7181331363682
 20
-307.785094947047
 10
532.7001019195169
 20
-307.7907539047488
 10
532.6820721326017
 20
-307.796417422712
 10
532.6640437773513
 20
-307.802085500392
 10
532.6460168554953
 20
-307.8077581372445
 10
532.6279913687633
 20
-307.8134353327252
 10
532.6099673188841
 20
-307.8191170862897
 10
532.5919447075869
 20
-307.8248033973935
 10
532.5739235366012
 20
-307.8304942654922
 10
532.5559038076563
 20
-307.8361896900416
 10
532.537885522481
 20
-307.841889670497
 10
532.5198686828053
 20
-307.8475942063144
 10
532.5018532903575
 20
-307.853303296949
 10
532.4838393468676
 20
-307.8590169418567
 10
532.4658268540646
 20
-307.864735140493
 10
532.4449686044228
 20
-307.8714353464657
 10
532.4241461107249
 20
-307.8782601829979
 10
532.4033533192656
 20
-307.8851884600035
 10
532.3825841763407
 20
-307.892198987397
 10
532.3618326282447
 20
-307.8992705750921
 10
532.3410926212731
 20
-307.9063820330032
 10
532.3203581017209
 20
-307.9135121710446
 10
532.2996230158834
 20
-307.9206397991302
 10
532.2788813100553
 20
-307.9277437271741
 10
532.2581269305322
 20
-307.9348027650905
 10
532.237353823609
 20
-307.9417957227938
 10
532.216555935581
 20
-307.9487014101978
 10
532.1957272127431
 20
-307.9554986372167
 10
532.1748616013905
 20
-307.9621662137647
 10
532.1539530478184
 20
-307.9686829497559
 10
532.1329954983217
 20
-307.9750276551046
 10
532.111982899196
 20
-307.9811791397248
 10
532.090909196736
 20
-307.9871162135304
 10
532.0697683372371
 20
-307.992817686436
 10
532.0485542669942
 20
-307.9982623683555
 10
531.9575286647047
 20
-308.0211511590597
 10
531.8665410722032
 20
-308.044282225581
 10
531.775578889713
 20
-308.0675884441559
 10
531.684629517458
 20
-308.0910026910213
 10
531.5936803556618
 20
-308.1144578424135
 10
531.502718804548
 20
-308.1378867745694
 10
531.4117322643406
 20
-308.1612223637259
 10
531.3207081352629
 20
-308.1843974861192
 10
531.2296338175386
 20
-308.2073450179864
 10
531.1384967113912
 20
-308.2299978355637
 10
531.047284217045
 20
-308.2522888150883
 10
530.9559837347231
 20
-308.2741508327965
 10
530.8645826646492
 20
-308.295516764925
 10
530.773068407047
 20
-308.3163194877106
 10
530.6814283621404
 20
-308.3364918773899
 10
530.5896499301527
 20
-308.3559668101996
 10
530.4977205113079
 20
-308.3746771623763
 10
530.4056275058292
 20
-308.3925558101566
 10
530.3133583139409
 20
-308.4095356297774
 10
530.2209003358662
 20
-308.4255494974752
 10
530.1177830802092
 20
-308.4422713486251
 10
530.0145207877548
 20
-308.4579585134993
 10
529.9111246156659
 20
-308.4726891935508
 10
529.8076057211068
 20
-308.4865415902332
 10
529.7039752612399
 20
-308.4995939049996
 10
529.6002443932291
 20
-308.5119243393035
 10
529.4964242742379
 20
-308.5236110945983
 10
529.3925260614299
 20
-308.534732372337
 10
529.2885609119677
 20
-308.545366373973
 10
529.1845399830154
 20
-308.5555913009596
 10
529.0804744317364
 20
-308.5654853547504
 10
528.9763754152939
 20
-308.5751267367983
 10
528.8722540908514
 20
-308.5845936485569
 10
528.7681216155721
 20
-308.5939642914793
 10
528.6639891466198
 20
-308.6033168670191
 10
528.5598678411576
 20
-308.6127295766292
 10
528.4557688563491
 20
-308.6222806217633
 10
528.3517033493576
 20
-308.6320482038744
 10
528.2476824773466
 20
-308.6421105244161
 10
528.1437173974795
 20
-308.6525457848415
 10
528.1368215094245
 20
-308.6532164236862
 10
528.1299158834058
 20
-308.6538164689684
 10
528.1230016014191
 20
-308.6543459206878
 10
528.1160797454608
 20
-308.6548047788448
 10
528.1091513975263
 20
-308.655193043439
 10
528.1022176396119
 20
-308.6555107144707
 10
528.0952795537139
 20
-308.6557577919399
 10
528.0883382218279
 20
-308.6559342758464
 10
528.0813947259497
 20
-308.6560401661902
 10
528.0744501480755
 20
-308.6560754629715
 10
528.0675055702015
 20
-308.6560401661902
 10
528.0605620743236
 20
-308.6559342758463
 10
528.0536207424374
 20
-308.6557577919398
 10
528.0466826565391
 20
-308.6555107144707
 10
528.039748898625
 20
-308.6551930434391
 10
528.0328205506905
 20
-308.6548047788447
 10
528.0258986947322
 20
-308.6543459206879
 10
528.0189844127455
 20
-308.6538164689683
 10
528.0120787867268
 20
-308.6532164236863
 10
528.0051828986718
 20
-308.6525457848415
  0
ENDBLK
  5
E4
330
E1
100
AcDbEntity
  8
0
100
AcDbBlockEnd
  0
ENDSEC
  0
SECTION
  2
ENTITIES
  0
LINE
  5
39
330
1F
100
AcDbEntity
  8
0
  6
Continuous
 62
     5
420
      255
370
     0
100
AcDbLine
 10
500.0153723052279
 20
-184.7277074112326
 30
0.0
 11
686.5895750161721
 21
-184.7277074112326
 31
0.0
1001
TCAD
1000
TCW_ATTRIBUTE
1002
{
1000
Line/Polyline
1002
}
  0
INSERT
  5
3E
330
1F
100
AcDbEntity
  8
0
  6
Continuous
 62
     7
100
AcDbBlockReference
  2
*E1
 10
0.0
 20
0.0
 30
0.0
1001
TCAD
1000
TC25ExternalObject
1002
{
1000
TCW30CURVE
1000

1070
     0
1071
        0
1040
1.0
1040
0.0
1000
Continuous
1000
0
1071
       52
1071
      162
1010
530.0522622705769
1020
-183.1621879735798
1030
0.0
1071
     6274
1010
529.8117030400884
1020
-181.9568810914853
1030
0.0
1071
     6274
1010
530.8255947056948
1020
-180.9783318926453
1030
0.0
1071
      130
1010
531.8903735360698
1020
-180.0027074112326
1030
0.0
1071
     6274
1010
532.4921882660991
1020
-179.4512828645176
1030
0.0
1071
     6274
1010
533.0862196507095
1020
-178.8804766681395
1030
0.0
1071
      130
1010
533.7653735360698
1020
-178.4277074112326
1030
0.0
1071
     6274
1010
534.9677150017109
1020
-177.6261464341386
1030
0.0
1071
     6274
1010
536.2312184139643
1020
-176.9153314542391
1030
0.0
1071
      130
1010
537.5153735360698
1020
-176.2527074112326
1030
0.0
1071
     6274
1010
538.7344117482778
1020
-175.6236836937333
1030
0.0
1071
     6274
1010
539.9873672525333
1020
-175.0561298618119
1030
0.0
1071
      130
1010
541.2653735360698
1020
-174.5577074112326
1030
0.0
1071
     6274
1010
542.4909862610017
1020
-174.0797184485092
1030
0.0
1071
     6274
1010
543.7494528700508
1020
-173.6855409861607
1030
0.0
1071
      130
1010
545.0153735360699
1020
-173.3277074112326
1030
0.0
1071
     6274
1010
547.5010948217505
1020
-172.6250768611469
1030
0.0
1071
     6274
1010
549.9848800602133
1020
-171.8964585737832
1030
0.0
1071
      130
1010
552.5153735360699
1020
-171.3777074112326
1030
0.0
1071
     6274
1010
554.9918408356201
1020
-170.8700316148248
1030
0.0
1071
     6274
1010
557.5084993209927
1020
-170.5786010591927
1030
0.0
1071
      130
1010
560.0153735360699
1020
-170.2527074112326
1030
0.0
1071
     6274
1010
562.509466271735
1020
-169.9284753555961
1030
0.0
1071
     6274
1010
565.0073379728102
1020
-169.6158100784771
1030
0.0
1071
      130
1010
567.5153735360699
1020
-169.4277074112326
1030
0.0
1071
     6274
1010
570.0103654122889
1020
-169.2405830205162
1030
0.0
1071
     6274
1010
572.5133743354304
1020
-169.1277074112326
1030
0.0
1071
      130
1010
575.0153735360699
1020
-169.1277074112326
1030
0.0
1071
     6274
1010
580.0163734360899
1020
-169.1277074112326
1030
0.0
1071
     6274
1010
585.0188840547955
1020
-169.2153566082785
1030
0.0
1071
      130
1010
590.0153735360699
1020
-169.4277074112326
1030
0.0
1071
     6274
1010
595.0214058696896
1020
-169.6404637854114
1030
0.0
1071
     6274
1010
600.0207793796881
1020
-170.0031398787221
1030
0.0
1071
      130
1010
605.0153735360699
1020
-170.4027074112326
1030
0.0
1071
     6274
1010
610.0218900566564
1020
-170.8032287328796
1030
0.0
1071
     6274
1010
615.0216332855686
1020
-171.2908803343038
1030
0.0
1071
      130
1010
620.0153735360699
1020
-171.8277074112326
1030
0.0
1071
     6274
1010
625.0223967593769
1020
-172.3659624077381
1030
0.0
1071
     6274
1010
630.0298662979513
1020
-172.9172726298007
1030
0.0
1071
      130
1010
635.0153735360699
1020
-173.6277074112326
1030
0.0
1071
     6274
1010
640.0322975245753
1020
-174.3426190795946
1030
0.0
1071
     6274
1010
645.0215225821061
1020
-175.2412681216739
1030
0.0
1071
      130
1010
650.0153735360699
1020
-176.1027074112326
1030
0.0
1071
     6274
1010
655.0217878096261
1020
-176.9663138734211
1030
0.0
1071
     6274
1010
660.0286272931322
1020
-177.8319541426074
1030
0.0
1071
      130
1010
665.0153735360699
1020
-178.8027074112326
1030
0.0
1071
     6274
1010
667.5301206595021
1020
-179.2922448512608
1030
0.0
1071
     6274
1010
670.0328627049233
1020
-179.8496671492902
1030
0.0
1071
      130
1010
672.5153735360699
1020
-180.4827074112326
1030
0.0
1071
     6274
1010
675.0349804600158
1020
-181.1252071768388
1030
0.0
1071
     6274
1010
677.5370661454698
1020
-181.8408036828787
1030
0.0
1071
      162
1010
680.0153735360699
1020
-182.6277074112326
1030
0.0
1070
     3
1071
-2147483635
1000
$SPLINESEGS
1070
    18
1070
    19
1000
$SPLFRAME
1070
    18
1070
     0
1000
$SPLINETYPE
1070
    18
1070
     1
1000
$SHOWCONTRPTS
1070
    18
1070
     1
1000
$CURVESMOOTH
1070
    18
1070
     1
1000
DEGREE
1070
    19
1071
        3
1000
RATIONAL
1070
    17
1070
 16640
1000
SPLINECLOSED
1070
    17
1070
 20480
1000
NPOINTS
1070
     3
1071
        0
1000
NKNOTS
1070
     3
1071
        0
1000
WEIGHTS
1070
  8204
1070
    12
1070
     8
1004
0000000000000000
1070
    16
1000
KNOTS
1070
  8204
1070
    12
1070
     8
1004
0000000000000000
1070
    16
1000
REALDEGREE
1070
    19
1071
        3
1002
}
  0
LINE
  5
3F
330
1F
100
AcDbEntity
  8
0
  6
Continuous
 62
     7
370
     0
100
AcDbLine
 10
680.0153735360699
 20
-182.6277074112326
 30
0.0
 11
680.0153735360699
 21
-184.7277074112326
 31
0.0
1001
TCAD
1000
TCW_ATTRIBUTE
1002
{
1000
Line/Polyline
1002
}
  0
INSERT
  5
44
330
1F
100
AcDbEntity
  8
0
  6
Continuous
 62
     7
100
AcDbBlockReference
  2
*E2
 10
0.0
 20
0.0
 30
0.0
1001
TCAD
1000
TC25ExternalObject
1002
{
1000
TCW30CURVE
1000

1070
     0
1071
        0
1040
1.0
1040
0.0
1000
Continuous
1000
0
1071
       52
1071
      162
1010
530.0928732987586
1020
-183.3567824836171
1030
0.0
1071
     6274
1010
530.3365394678489
1020
-184.0742439814938
1030
0.0
1071
     6274
1010
530.8255947056948
1020
-184.656063293043
1030
0.0
1071
      130
1010
531.8903735360698
1020
-184.7277074112326
1030
0.0
1071
     6274
1010
532.5316714978967
1020
-184.7708574304302
1030
0.0
1071
     6274
1010
533.1408981922864
1020
-184.5247038725633
1030
0.0
1071
      130
1010
533.7766527432829
1020
-184.3802142018822
1030
0.0
1071
     6274
1010
535.0074562248411
1020
-184.1004861378917
1030
0.0
1071
     6274
1010
536.2653735360698
1020
-183.9277074112326
1030
0.0
1071
      130
1010
537.5153735360698
1020
-183.7527074112326
1030
0.0
1071
     6274
1010
538.7653735360699
1020
-183.5777074112326
1030
0.0
1071
     6274
1010
540.0171474108595
1020
-183.4149413300142
1030
0.0
1071
      130
1010
541.2653735360698
1020
-183.2277074112326
1030
0.0
1071
     6274
1010
542.5172669675623
1020
-183.0399233965088
1030
0.0
1071
     6274
1010
543.7595093770623
1020
-182.7867835380402
1030
0.0
1071
      130
1010
545.0153735360699
1020
-182.6277074112326
1030
0.0
1071
     6274
1010
547.5105161204401
1020
-182.3116560172124
1030
0.0
1071
     6274
1010
550.0127758757366
1020
-182.0529671772659
1030
0.0
1071
      130
1010
552.5153735360699
1020
-181.8027074112326
1030
0.0
1071
     6274
1010
555.0130209439834
1020
-181.5529426704413
1030
0.0
1071
     6274
1010
557.5068049845485
1020
-181.2155073105359
1030
0.0
1071
      130
1010
560.0153735360699
1020
-181.1277074112326
1030
0.0
1071
     6274
1010
562.5143433355428
1020
-181.0402434682511
1030
0.0
1071
     6274
1010
565.1183356060968
1020
-180.740053823955
1030
0.0
1071
      130
1010
567.6143467722839
1020
-180.5902931539838
1030
0.0
1071
     6274
1010
570.1341962303569
1020
-180.4391021864994
1030
0.0
1071
     6274
1010
572.497752948857
1020
-180.4123329209616
1030
0.0
1071
      130
1010
575.0153735360699
1020
-180.2277074112326
1030
0.0
1071
     6274
1010
580.0059707688688
1020
-179.8617302808274
1030
0.0
1071
     6274
1010
585.0123756343315
1020
-179.7277673692674
1030
0.0
1071
      130
1010
590.0153735360699
1020
-179.6277074112326
1030
0.0
1071
     6274
1010
595.0143738359699
1020
-179.5277274052346
1030
0.0
1071
     6274
1010
600.0157041282796
1020
-179.5702112130431
1030
0.0
1071
      130
1010
605.0153735360699
1020
-179.6277074112326
1030
0.0
1071
     6274
1010
610.0163651815756
1020
-179.6852188151559
1030
0.0
1071
     6274
1010
615.0175640611589
1020
-179.7852895559235
1030
0.0
1071
      130
1010
620.0153735360699
1020
-179.9727074112326
1030
0.0
1071
     6274
1010
625.0186123061112
1020
-180.1603288651092
1030
0.0
1071
     6274
1010
630.0163113605583
1020
-180.4752594604917
1030
0.0
1071
      130
1010
635.0153735360699
1020
-180.7527074112326
1030
0.0
1071
     6274
1010
640.016372234781
1020
-181.0302628390111
1030
0.0
1071
     6274
1010
645.0207063986574
1020
-181.2631073759267
1030
0.0
1071
      130
1010
650.0153735360699
1020
-181.6377074112326
1030
0.0
1071
     6274
1010
655.0219720409617
1020
-182.0132022990995
1030
0.0
1071
     6274
1010
660.0183283684638
1020
-182.5163283482523
1030
0.0
1071
      130
1010
665.0153735360699
1020
-183.0027074112326
1030
0.0
1071
     6274
1010
667.5186233930986
1020
-183.2463570639834
1030
0.0
1071
     6274
1010
670.0167618166219
1020
-183.5403670634961
1030
0.0
1071
      130
1010
672.5153735360699
1020
-183.8277074112326
1030
0.0
1071
     6274
1010
675.0168226953709
1020
-184.1153740645523
1030
0.0
1071
     6274
1010
677.5168835043232
1020
-184.4153813616265
1030
0.0
1071
      162
1010
680.0153735360699
1020
-184.7277074112326
1030
0.0
1070
     3
1071
-2147483635
1000
$SPLINESEGS
1070
    18
1070
    19
1000
$SPLFRAME
1070
    18
1070
     0
1000
$SPLINETYPE
1070
    18
1070
     1
1000
$SHOWCONTRPTS
1070
    18
1070
     1
1000
$CURVESMOOTH
1070
    18
1070
     1
1000
DEGREE
1070
    19
1071
        3
1000
RATIONAL
1070
    17
1070
 16640
1000
SPLINECLOSED
1070
    17
1070
 20480
1000
NPOINTS
1070
     3
1071
        0
1000
NKNOTS
1070
     3
1071
        0
1000
WEIGHTS
1070
  8204
1070
    12
1070
     8
1004
0000000000000000
1070
    16
1000
KNOTS
1070
  8204
1070
    12
1070
     8
1004
0000000000000000
1070
    16
1000
REALDEGREE
1070
    19
1071
        3
1002
}
  0
LINE
  5
45
330
1F
100
AcDbEntity
  8
0
  6
Continuous
 62
     5
420
      255
370
     0
100
AcDbLine
 10
530.0153735360698
 20
-182.6331763595526
 30
0.0
 11
530.0153735360698
 21
-199.7260183109053
 31
0.0
1001
TCAD
1000
TCW_ATTRIBUTE
1002
{
1000
Line/Polyline
1002
}
  0
LINE
  5
46
330
1F
100
AcDbEntity
  8
0
  6
Continuous
 62
     5
420
      255
370
     0
100
AcDbLine
 10
680.0153735360699
 20
-182.6176731347778
 30
0.0
 11
680.0153735360699
 21
-199.7501629211791
 31
0.0
1001
TCAD
1000
TCW_ATTRIBUTE
1002
{
1000
Line/Polyline
1002
}
  0
INSERT
  5
4B
330
1F
100
AcDbEntity
  8
0
  6
Continuous
 62
     7
100
AcDbBlockReference
  2
*E3
 10
0.0
 20
0.0
 30
0.0
1001
TCAD
1000
TC25ExternalObject
1002
{
1000
TCW30CURVE
1000

1070
     0
1071
        0
1040
1.0
1040
0.0
1000
Continuous
1000
0
1071
       22
1071
      162
1010
668.8583485860765
1020
-179.6105300755177
1030
0.0
1071
     6274
1010
669.5843870057308
1020
-179.7635385506279
1030
0.0
1071
     6274
1010
670.3074992562468
1020
-179.9311565244065
1030
0.0
1071
      130
1010
671.0268116353456
1020
-180.1131814719958
1030
0.0
1071
     6274
1010
672.6880312892438
1020
-180.5335599184422
1030
0.0
1071
     6274
1010
674.345468921442
1020
-180.9690966487859
1030
0.0
1071
      130
1010
675.9993217303709
1020
-181.4175826163841
1030
0.0
1071
     6274
1010
676.6996736524253
1020
-181.6075015787767
1030
0.0
1071
     6274
1010
677.3941081636748
1020
-181.8187485427506
1030
0.0
1071
      130
1010
678.0888560479614
1020
-182.0282417509484
1030
0.0
1071
     6274
1010
678.744257069777
1020
-182.2258703667695
1030
0.0
1071
     6274
1010
679.3967427640438
1020
-182.4330624790024
1030
0.0
1071
      130
1010
680.0496119083549
1020
-182.6389008855126
1030
0.0
1071
     6274
1010
681.4104698700978
1020
-183.0679559829587
1030
0.0
1071
     6274
1010
682.7706865215981
1020
-183.4990547432479
1030
0.0
1071
      130
1010
684.1300196289307
1020
-183.9329166705857
1030
0.0
1071
     6274
1010
684.9464255602672
1020
-184.1934911014952
1030
0.0
1071
     6274
1010
685.7609063761163
1020
-184.460061949008
1030
0.0
1071
      130
1010
686.5768103107123
1020
-184.7222039873694
1030
0.0
1071
     6274
1010
687.9072148913823
1020
-185.1496501042885
1030
0.0
1071
     6274
1010
689.1218972555047
1020
-185.5277078822073
1030
0.0
1071
      162
1010
690.4504443754284
1020
-185.9608926941283
1030
0.0
1070
     3
1071
-2147483635
1000
$SPLINESEGS
1070
    18
1070
    20
1000
$SPLFRAME
1070
    18
1070
     0
1000
$SPLINETYPE
1070
    18
1070
     1
1000
$SHOWCONTRPTS
1070
    18
1070
     1
1000
$CURVESMOOTH
1070
    18
1070
     1
1000
DEGREE
1070
    19
1071
        3
1000
RATIONAL
1070
    17
1070
 16640
1000
SPLINECLOSED
1070
    17
1070
 20480
1000
NPOINTS
1070
     3
1071
        0
1000
NKNOTS
1070
     3
1071
        0
1000
WEIGHTS
1070
  8204
1070
    12
1070
     8
1004
0000000000000000
1070
    16
1000
KNOTS
1070
  8204
1070
    12
1070
     8
1004
0000000000000000
1070
    16
1000
REALDEGREE
1070
    19
1071
        3
1002
}
1000
TCW_CUSTOM_DATA
1002
{
1000
#$AUX@_ToolInfo Properties
1070
     8
1000
CMD_BEZIER@
1002
}
  0
INSERT
  5
50
330
1F
100
AcDbEntity
  8
0
  6
Continuous
 62
     7
100
AcDbBlockReference
  2
*E4
 10
0.0
 20
0.0
 30
0.0
1001
TCAD
1000
TC25ExternalObject
1002
{
1000
TCW30CURVE
1000

1070
     0
1071
        0
1040
1.0
1040
0.0
1000
Continuous
1000
0
1071
       22
1071
      162
1010
671.3861450712384
1020
-183.6982075471711
1030
0.0
1071
     6274
1010
671.5585925904978
1020
-183.7171385889332
1030
0.0
1071
     6274
1010
671.7309907573688
1020
-183.7365247281798
1030
0.0
1071
      130
1010
671.9033359709204
1020
-183.7563655599867
1030
0.0
1071
     6274
1010
672.239181920031
1020
-183.7950290241586
1030
0.0
1071
     6274
1010
672.574902098987
1020
-183.8347778659542
1030
0.0
1071
      130
1010
672.9107158356388
1020
-183.8737201215611
1030
0.0
1071
     6274
1010
673.3794213552957
1020
-183.9280730206796
1030
0.0
1071
     6274
1010
673.8482846001618
1020
-183.9810713044675
1030
0.0
1071
      130
1010
674.3168935025218
1020
-184.0362509966416
1030
0.0
1071
     6274
1010
675.2050469037104
1020
-184.140832943408
1030
0.0
1071
     6274
1010
676.0930548905669
1020
-184.2466504170134
1030
0.0
1071
      130
1010
676.9809978308853
1020
-184.3530044595839
1030
0.0
1071
     6274
1010
677.991931944323
1020
-184.474089863673
1030
0.0
1071
     6274
1010
679.0022715966892
1020
-184.6001609562255
1030
0.0
1071
      130
1010
680.0135227848438
1020
-184.7185691115679
1030
0.0
1071
     6274
1010
682.0770391014235
1020
-184.9601877750882
1030
0.0
1071
     6274
1010
684.1425381882292
1020
-185.1848887307727
1030
0.0
1071
      130
1010
686.2052740772035
1020
-185.4330818404458
1030
0.0
1071
     6274
1010
688.00940583742
1020
-185.6501591086611
1030
0.0
1071
     6274
1010
688.6478332572035
1020
-185.7277973358086
1030
0.0
1071
      162
1010
690.4494426866611
1020
-185.9648994494373
1030
0.0
1070
     3
1071
-2147483635
1000
$SPLINESEGS
1070
    18
1070
    20
1000
$SPLFRAME
1070
    18
1070
     0
1000
$SPLINETYPE
1070
    18
1070
     1
1000
$SHOWCONTRPTS
1070
    18
1070
     1
1000
$CURVESMOOTH
1070
    18
1070
     1
1000
DEGREE
1070
    19
1071
        3
1000
RATIONAL
1070
    17
1070
 16640
1000
SPLINECLOSED
1070
    17
1070
 20480
1000
NPOINTS
1070
     3
1071
        0
1000
NKNOTS
1070
     3
1071
        0
1000
WEIGHTS
1070
  8204
1070
    12
1070
     8
1004
0000000000000000
1070
    16
1000
KNOTS
1070
  8204
1070
    12
1070
     8
1004
0000000000000000
1070
    16
1000
REALDEGREE
1070
    19
1071
        3
1002
}
1000
TCW_CUSTOM_DATA
1002
{
1000
#$AUX@_ToolInfo Properties
1070
     8
1000
CMD_BEZIER@
1002
}
  0
LINE
  5
51
330
1F
100
AcDbEntity
  8
0
  6
Continuous
 62
     5
420
      255
370
     0
100
AcDbLine
 10
690.4490747342708
 20
-199.7025726717724
 30
0.0
 11
690.4490747342708
 21
-185.8062198450247
 31
0.0
1001
TCAD
1000
TCW_CUSTOM_DATA
1002
{
1000
#$AUX@_ToolInfo Properties
1070
     8
1000
CMD_LINE@
1002
}
  0
ARC
  5
52
330
1F
100
AcDbEntity
  8
0
  6
Continuous
 62
     7
370
     0
100
AcDbCircle
 10
528.5198649405587
 20
-183.2296978737681
 30
0.0
 40
1.5
100
AcDbArc
 50
-90.0
 51
0.0
1001
TCAD
1000
TCW_CUSTOM_DATA
1002
{
1000
#$AUX@_ToolInfo Properties
1070
     8
1000
CMD_CENTERPTCIRCLE@
1002
}
  0
LINE
  5
53
330
1F
100
AcDbEntity
  8
0
  6
Continuous
 62
     5
420
      255
370
     0
100
AcDbLine
 10
690.449439323439
 20
-185.9618733748646
 30
0.0
 11
720.4490834397294
 21
-185.9618733748646
 31
0.0
1001
TCAD
1000
TCW_CUSTOM_DATA
1002
{
1000
#$AUX@_ToolInfo Properties
1070
     8
1000
CMD_LINE@
1002
}
  0
TEXT
  5
55
330
1F
100
AcDbEntity
  8
0
  6
Continuous
 62
     7
100
AcDbText
 10
530.7066755872349
 20
-191.4245931280387
 30
0.0
 40
2.604514789581299
  1
0 vonal
  7
_TCW_TXTSTY_2
 11
530.7066755872349
 21
-188.8200783384574
 31
0.0
100
AcDbText
 73
     3
1001
TCAD
1000
TCW40_TEXT
1002
{
1000
Times New Roman Baltic
1070
     0
1070
   257
1002
}
1000
TCW_CUSTOM_DATA
1002
{
1000
#$AUX@_ToolInfo Properties
1070
     8
1000
CMD_TEXT@
1002
}
  0
TEXT
  5
57
330
1F
100
AcDbEntity
  8
0
  6
Continuous
 62
     7
100
AcDbText
 10
662.9230728936897
 20
-191.3963610686015
 30
0.0
 40
2.604514789581299
  1
150 vonal
  7
_TCW_TXTSTY_3
 11
662.9230728936897
 21
-188.7918462790202
 31
0.0
100
AcDbText
 73
     3
1001
TCAD
1000
TCW40_TEXT
1002
{
1000
Times New Roman Baltic
1070
     0
1070
   257
1002
}
1000
TCW_CUSTOM_DATA
1002
{
1000
#$AUX@_ToolInfo Properties
1070
     8
1000
CMD_TEXT@
1002
}
  0
LINE
  5
58
330
1F
100
AcDbEntity
  8
0
  6
Continuous
 62
     7
370
     0
100
AcDbLine
 10
500.0153723052279
 20
-184.7277070449169
 30
0.0
 11
500.0153723052279
 21
-199.7277070449169
 31
0.0
1001
TCAD
1000
TCW_CUSTOM_DATA
1002
{
1000
#$AUX@_ToolInfo Properties
1070
     8
1000
CMD_LINE@
1002
}
  0
LINE
  5
59
330
1F
100
AcDbEntity
  8
0
  6
Continuous
 62
     7
370
     0
100
AcDbLine
 10
500.0161086779909
 20
-199.7277326051726
 30
0.0
 11
720.4490834397295
 21
-199.7277326051726
 31
0.0
1001
TCAD
1000
TCW_CUSTOM_DATA
1002
{
1000
#$AUX@_ToolInfo Properties
1070
     8
1000
CMD_LINE@
1002
}
  0
LINE
  5
5A
330
1F
100
AcDbEntity
  8
0
  6
Continuous
 62
     7
370
     0
100
AcDbLine
 10
720.4490769060587
 20
-185.9618735667586
 30
0.0
 11
720.4490769060587
 21
-199.7291501493649
 31
0.0
1001
TCAD
1000
TCW_CUSTOM_DATA
1002
{
1000
#$AUX@_ToolInfo Properties
1070
     8
1000
CMD_LINE@
1002
}
  0
INSERT
  5
5F
330
1F
100
AcDbEntity
  8
0
  6
Continuous
 62
     7
100
AcDbBlockReference
  2
*E5
 10
0.0
 20
0.0
 30
0.0
1001
TCAD
1000
TC25ExternalObject
1002
{
1000
TCW30CURVE
1000

1070
     0
1071
        0
1040
1.0
1040
0.0
1000
Continuous
1000
0
1071
       16
1071
      162
1010
687.6381053756639
1020
-185.061184170002
1030
0.0
1071
     6274
1010
687.7583751713748
1020
-185.0987128550445
1030
0.0
1071
     6274
1010
687.8785504450049
1020
-185.1365458115576
1030
0.0
1071
      130
1010
687.9986288908927
1020
-185.1746823136851
1030
0.0
1071
     6274
1010
688.1378165276615
1020
-185.2188878292254
1030
0.0
1071
     6274
1010
688.2742168545202
1020
-185.2728147211175
1030
0.0
1071
      130
1010
688.4159014779632
1020
-185.3082095415477
1030
0.0
1071
     6274
1010
689.0228935253555
1020
-185.4598447296004
1030
0.0
1071
     6274
1010
689.6265116018025
1020
-185.6321065563437
1030
0.0
1071
      130
1010
690.2435554090912
1020
-185.7354966706673
1030
0.0
1071
     6274
1010
690.9304955304491
1020
-185.8505984135935
1030
0.0
1071
     6274
1010
691.6278485825396
1020
-185.8915076412442
1030
0.0
1071
      130
1010
692.3207383474779
1020
-185.9624929580337
1030
0.0
1071
     6274
1010
692.3666760701959
1020
-185.9671991955403
1030
0.0
1071
     6274
1010
692.4133351235675
1020
-185.9671991955403
1030
0.0
1071
      162
1010
692.4592728462856
1020
-185.9624929580337
1030
0.0
1070
     3
1071
-2147483635
1000
$SPLINESEGS
1070
    18
1070
    20
1000
$SPLFRAME
1070
    18
1070
     0
1000
$SPLINETYPE
1070
    18
1070
     1
1000
$SHOWCONTRPTS
1070
    18
1070
     1
1000
$CURVESMOOTH
1070
    18
1070
     1
1000
DEGREE
1070
    19
1071
        3
1000
RATIONAL
1070
    17
1070
 16640
1000
SPLINECLOSED
1070
    17
1070
 20480
1000
NPOINTS
1070
     3
1071
        0
1000
NKNOTS
1070
     3
1071
        0
1000
WEIGHTS
1070
  8204
1070
    12
1070
     8
1004
0000000000000000
1070
    16
1000
KNOTS
1070
  8204
1070
    12
1070
     8
1004
0000000000000000
1070
    16
1000
REALDEGREE
1070
    19
1071
        3
1002
}
1000
TCW_CUSTOM_DATA
1002
{
1000
#$AUX@_ToolInfo Properties
1070
     8
1000
CMD_BEZIER@
1002
}
  0
LINE
  5
60
330
1F
100
AcDbEntity
  8
0
  6
Continuous
 62
     5
420
      255
370
     0
100
AcDbLine
 10
580.0165665326955
 20
-169.1601247813139
 30
0.0
 11
580.0165665326955
 21
-199.6937881060366
 31
0.0
1001
TCAD
1000
TCW_CUSTOM_DATA
1002
{
1000
#$AUX@_ToolInfo Properties
1070
     8
1000
CMD_LINE@
1002
}
  0
LINE
  5
61
330
1F
100
AcDbEntity
  8
0
  6
Continuous
 62
     5
420
      255
370
     0
100
AcDbLine
 10
630.0151984809589
 20
-172.968477806267
 30
0.0
 11
630.0151984809589
 21
-199.7312945289215
 31
0.0
1001
TCAD
1000
TCW_CUSTOM_DATA
1002
{
1000
#$AUX@_ToolInfo Properties
1070
     8
1000
CMD_LINE@
1002
}
  0
TEXT
  5
63
330
1F
100
AcDbEntity
  8
0
  6
Continuous
 62
     7
100
AcDbText
 10
580.6570342138574
 20
-191.5546425986614
 30
0.0
 40
2.604514789581299
  1
50
  7
_TCW_TXTSTY_4
 11
580.6570342138574
 21
-188.9501278090801
 31
0.0
100
AcDbText
 73
     3
1001
TCAD
1000
TCW40_TEXT
1002
{
1000
Times New Roman Baltic
1070
     0
1070
   257
1002
}
1000
TCW_CUSTOM_DATA
1002
{
1000
#$AUX@_ToolInfo Properties
1070
     8
1000
CMD_TEXT@
1002
}
  0
TEXT
  5
65
330
1F
100
AcDbEntity
  8
0
  6
Continuous
 62
     7
100
AcDbText
 10
630.6238610044032
 20
-191.5546425986614
 30
0.0
 40
2.604514789581299
  1
100
  7
_TCW_TXTSTY_5
 11
630.6238610044032
 21
-188.9501278090802
 31
0.0
100
AcDbText
 73
     3
1001
TCAD
1000
TCW40_TEXT
1002
{
1000
Times New Roman Baltic
1070
     0
1070
   257
1002
}
1000
TCW_CUSTOM_DATA
1002
{
1000
#$AUX@_ToolInfo Properties
1070
     8
1000
CMD_TEXT@
1002
}
  0
LINE
  5
66
330
1F
100
AcDbEntity
  8
0
  6
Continuous
 62
     5
420
      255
370
     0
100
AcDbLine
 10
520.0151327206038
 20
-184.7278991353126
 30
0.0
 11
520.0151327206038
 21
-199.7278991353126
 31
0.0
1001
TCAD
1000
TCW_CUSTOM_DATA
1002
{
1000
#$AUX@_ToolInfo Properties
1070
     8
1000
CMD_LINE@
1002
}
  0
LINE
  5
67
330
1F
100
AcDbEntity
  8
0
  6
Continuous
 62
     5
420
      255
370
     0
100
AcDbLine
 10
500.0153722850471
 20
-209.7025015390657
 30
0.0
 11
679.9794050534877
 21
-209.7025015390657
 31
0.0
1001
TCAD
1000
TCW_ATTRIBUTE
1002
{
1000
Line/Polyline
1002
}
  0
INSERT
  5
6C
330
1F
100
AcDbEntity
  8
0
  6
Continuous
 62
     7
100
AcDbBlockReference
  2
*E6
 10
0.0
 20
0.0
 30
0.0
1001
TCAD
1000
TC25ExternalObject
1002
{
1000
TCW30CURVE
1000

1070
     0
1071
        0
1040
1.0
1040
0.0
1000
Continuous
1000
0
1071
       49
1071
      162
1010
531.890373515889
1020
-209.7025015390657
1030
0.0
1071
     6274
1010
532.5316714777159
1020
-209.7456515582632
1030
0.0
1071
     6274
1010
533.1408981721056
1020
-209.4994980003963
1030
0.0
1071
      130
1010
533.7766527231021
1020
-209.3550083297153
1030
0.0
1071
     6274
1010
535.0074562046603
1020
-209.0752802657247
1030
0.0
1071
     6274
1010
536.265373515889
1020
-208.9025015390656
1030
0.0
1071
      130
1010
537.515373515889
1020
-208.7275015390656
1030
0.0
1071
     6274
1010
538.7653735158891
1020
-208.5525015390657
1030
0.0
1071
     6274
1010
540.0171473906786
1020
-208.3897354578472
1030
0.0
1071
      130
1010
541.2653735158891
1020
-208.2025015390657
1030
0.0
1071
     6274
1010
542.5172669473815
1020
-208.0147175243418
1030
0.0
1071
     6274
1010
543.7595093568815
1020
-207.7615776658733
1030
0.0
1071
      130
1010
545.0153735158891
1020
-207.6025015390656
1030
0.0
1071
     6274
1010
547.5105161002593
1020
-207.2864501450454
1030
0.0
1071
     6274
1010
550.0127758555558
1020
-207.0277613050989
1030
0.0
1071
      130
1010
552.5153735158891
1020
-206.7775015390656
1030
0.0
1071
     6274
1010
555.0130209238026
1020
-206.5277367982743
1030
0.0
1071
     6274
1010
557.5068049643677
1020
-206.1903014383689
1030
0.0
1071
      130
1010
560.0153735158891
1020
-206.1025015390656
1030
0.0
1071
     6274
1010
562.514343315362
1020
-206.0150375960841
1030
0.0
1071
     6274
1010
565.118335585916
1020
-205.714847951788
1030
0.0
1071
      130
1010
567.6143467521031
1020
-205.5650872818168
1030
0.0
1071
     6274
1010
570.1341962101761
1020
-205.4138963143324
1030
0.0
1071
     6274
1010
572.4977529286763
1020
-205.3871270487946
1030
0.0
1071
      130
1010
575.0153735158891
1020
-205.2025015390657
1030
0.0
1071
     6274
1010
580.005970748688
1020
-204.8365244086604
1030
0.0
1071
     6274
1010
585.0123756141508
1020
-204.7025614971004
1030
0.0
1071
      130
1010
590.0153735158891
1020
-204.6025015390656
1030
0.0
1071
     6274
1010
595.0143738157891
1020
-204.5025215330677
1030
0.0
1071
     6274
1010
600.0157041080988
1020
-204.5450053408761
1030
0.0
1071
      130
1010
605.0153735158891
1020
-204.6025015390656
1030
0.0
1071
     6274
1010
610.0163651613948
1020
-204.660012942989
1030
0.0
1071
     6274
1010
615.0175640409781
1020
-204.7600836837565
1030
0.0
1071
      130
1010
620.0153735158891
1020
-204.9475015390657
1030
0.0
1071
     6274
1010
625.0186122859304
1020
-205.1351229929422
1030
0.0
1071
     6274
1010
630.0163113403776
1020
-205.4500535883248
1030
0.0
1071
      130
1010
635.0153735158891
1020
-205.7275015390656
1030
0.0
1071
     6274
1010
640.0163722146002
1020
-206.0050569668441
1030
0.0
1071
     6274
1010
645.0207063784766
1020
-206.2379015037597
1030
0.0
1071
      130
1010
650.0153735158891
1020
-206.6125015390657
1030
0.0
1071
     6274
1010
655.0219720207809
1020
-206.9879964269325
1030
0.0
1071
     6274
1010
660.018328348283
1020
-207.4911224760853
1030
0.0
1071
      130
1010
665.0153735158891
1020
-207.9775015390656
1030
0.0
1071
     6274
1010
667.5186233729178
1020
-208.2211511918164
1030
0.0
1071
     6274
1010
670.0167617964411
1020
-208.5151611913292
1030
0.0
1071
      130
1010
672.5153735158891
1020
-208.8025015390656
1030
0.0
1071
     6274
1010
675.0168226751902
1020
-209.0901681923853
1030
0.0
1071
     6274
1010
677.5168834841425
1020
-209.3901754894596
1030
0.0
1071
      162
1010
680.0153735158891
1020
-209.7025015390657
1030
0.0
1070
     3
1071
-2147483635
1000
$SPLINESEGS
1070
    18
1070
    19
1000
$SPLFRAME
1070
    18
1070
     0
1000
$SPLINETYPE
1070
    18
1070
     1
1000
$SHOWCONTRPTS
1070
    18
1070
     1
1000
$CURVESMOOTH
1070
    18
1070
     1
1000
DEGREE
1070
    19
1071
        3
1000
RATIONAL
1070
    17
1070
 16640
1000
SPLINECLOSED
1070
    17
1070
 20480
1000
NPOINTS
1070
     3
1071
        0
1000
NKNOTS
1070
     3
1071
        0
1000
WEIGHTS
1070
  8204
1070
    12
1070
     8
1004
0000000000000000
1070
    16
1000
KNOTS
1070
  8204
1070
    12
1070
     8
1004
0000000000000000
1070
    16
1000
REALDEGREE
1070
    19
1071
        3
1002
}
  0
LINE
  5
6D
330
1F
100
AcDbEntity
  8
0
  6
Continuous
 62
     5
420
      255
370
     0
100
AcDbLine
 10
530.015373515889
 20
-209.6951267044934
 30
0.0
 11
530.015373515889
 21
-224.7008124387383
 31
0.0
1001
TCAD
1000
TCW_ATTRIBUTE
1002
{
1000
Line/Polyline
1002
}
  0
LINE
  5
6E
330
1F
100
AcDbEntity
  8
0
  6
Continuous
 62
     5
420
      255
370
     0
100
AcDbLine
 10
680.0153735158891
 20
-209.675627700315
 30
0.0
 11
680.0153735158891
 21
-224.7249570490121
 31
0.0
1001
TCAD
1000
TCW_ATTRIBUTE
1002
{
1000
Line/Polyline
1002
}
  0
INSERT
  5
73
330
1F
100
AcDbEntity
  8
0
  6
Continuous
 62
     7
100
AcDbBlockReference
  2
*E7
 10
0.0
 20
0.0
 30
0.0
1001
TCAD
1000
TC25ExternalObject
1002
{
1000
TCW30CURVE
1000

1070
     0
1071
        0
1040
1.0
1040
0.0
1000
Continuous
1000
0
1071
       22
1071
      162
1010
671.3861450510576
1020
-208.6730016750041
1030
0.0
1071
     6274
1010
671.558592570317
1020
-208.6919327167663
1030
0.0
1071
     6274
1010
671.730990737188
1020
-208.7113188560128
1030
0.0
1071
      130
1010
671.9033359507396
1020
-208.7311596878197
1030
0.0
1071
     6274
1010
672.2391818998502
1020
-208.7698231519916
1030
0.0
1071
     6274
1010
672.5749020788062
1020
-208.8095719937873
1030
0.0
1071
      130
1010
672.910715815458
1020
-208.8485142493942
1030
0.0
1071
     6274
1010
673.3794213351149
1020
-208.9028671485126
1030
0.0
1071
     6274
1010
673.848284579981
1020
-208.9558654323006
1030
0.0
1071
      130
1010
674.316893482341
1020
-209.0110451244746
1030
0.0
1071
     6274
1010
675.2050468835296
1020
-209.1156270712411
1030
0.0
1071
     6274
1010
676.0930548703861
1020
-209.2214445448465
1030
0.0
1071
      130
1010
676.9809978107045
1020
-209.3277985874169
1030
0.0
1071
     6274
1010
677.9919319241422
1020
-209.448883991506
1030
0.0
1071
     6274
1010
679.0022715765084
1020
-209.5749550840586
1030
0.0
1071
      130
1010
680.013522764663
1020
-209.693363239401
1030
0.0
1071
     6274
1010
682.0770390812427
1020
-209.9349819029213
1030
0.0
1071
     6274
1010
684.1425381680484
1020
-210.1596828586058
1030
0.0
1071
      130
1010
686.2052740570227
1020
-210.4078759682789
1030
0.0
1071
     6274
1010
688.0094058172392
1020
-210.6249532364941
1030
0.0
1071
     6274
1010
688.6478332370227
1020
-210.7025914636417
1030
0.0
1071
      162
1010
690.4494426664803
1020
-210.9396935772704
1030
0.0
1070
     3
1071
-2147483635
1000
$SPLINESEGS
1070
    18
1070
    20
1000
$SPLFRAME
1070
    18
1070
     0
1000
$SPLINETYPE
1070
    18
1070
     1
1000
$SHOWCONTRPTS
1070
    18
1070
     1
1000
$CURVESMOOTH
1070
    18
1070
     1
1000
DEGREE
1070
    19
1071
        3
1000
RATIONAL
1070
    17
1070
 16640
1000
SPLINECLOSED
1070
    17
1070
 20480
1000
NPOINTS
1070
     3
1071
        0
1000
NKNOTS
1070
     3
1071
        0
1000
WEIGHTS
1070
  8204
1070
    12
1070
     8
1004
0000000000000000
1070
    16
1000
KNOTS
1070
  8204
1070
    12
1070
     8
1004
0000000000000000
1070
    16
1000
REALDEGREE
1070
    19
1071
        3
1002
}
1000
TCW_CUSTOM_DATA
1002
{
1000
#$AUX@_ToolInfo Properties
1070
     8
1000
CMD_BEZIER@
1002
}
  0
LINE
  5
74
330
1F
100
AcDbEntity
  8
0
  6
Continuous
 62
     5
420
      255
370
     0
100
AcDbLine
 10
690.44907471409
 20
-224.6773667996054
 30
0.0
 11
690.44907471409
 21
-210.9625620485462
 31
0.0
1001
TCAD
1000
TCW_CUSTOM_DATA
1002
{
1000
#$AUX@_ToolInfo Properties
1070
     8
1000
CMD_LINE@
1002
}
  0
LINE
  5
75
330
1F
100
AcDbEntity
  8
0
  6
Continuous
 62
     5
420
      255
370
     0
100
AcDbLine
 10
690.4494393032583
 20
-210.9366675026976
 30
0.0
 11
720.4490834195486
 21
-210.9366675026976
 31
0.0
1001
TCAD
1000
TCW_CUSTOM_DATA
1002
{
1000
#$AUX@_ToolInfo Properties
1070
     8
1000
CMD_LINE@
1002
}
  0
TEXT
  5
77
330
1F
100
AcDbEntity
  8
0
  6
Continuous
 62
     7
100
AcDbText
 10
530.7066755670542
 20
-216.3993872558718
 30
0.0
 40
2.604514789581299
  1
0 vonal
  7
_TCW_TXTSTY_6
 11
530.7066755670542
 21
-213.7948724662905
 31
0.0
100
AcDbText
 73
     3
1001
TCAD
1000
TCW40_TEXT
1002
{
1000
Times New Roman Baltic
1070
     0
1070
   257
1002
}
1000
TCW_CUSTOM_DATA
1002
{
1000
#$AUX@_ToolInfo Properties
1070
     8
1000
CMD_TEXT@
1002
}
  0
TEXT
  5
79
330
1F
100
AcDbEntity
  8
0
  6
Continuous
 62
     7
100
AcDbText
 10
662.9230728735089
 20
-216.3711551964345
 30
0.0
 40
2.604514789581299
  1
150 vonal
  7
_TCW_TXTSTY_7
 11
662.9230728735089
 21
-213.7666404068532
 31
0.0
100
AcDbText
 73
     3
1001
TCAD
1000
TCW40_TEXT
1002
{
1000
Times New Roman Baltic
1070
     0
1070
   257
1002
}
1000
TCW_CUSTOM_DATA
1002
{
1000
#$AUX@_ToolInfo Properties
1070
     8
1000
CMD_TEXT@
1002
}
  0
LINE
  5
7A
330
1F
100
AcDbEntity
  8
0
  6
Continuous
 62
     7
370
     0
100
AcDbLine
 10
500.0153722850471
 20
-209.70250117275
 30
0.0
 11
500.0153722850471
 21
-224.70250117275
 31
0.0
1001
TCAD
1000
TCW_CUSTOM_DATA
1002
{
1000
#$AUX@_ToolInfo Properties
1070
     8
1000
CMD_LINE@
1002
}
  0
LINE
  5
7B
330
1F
100
AcDbEntity
  8
0
  6
Continuous
 62
     7
370
     0
100
AcDbLine
 10
500.0161086578102
 20
-224.7025267330057
 30
0.0
 11
720.4490834195487
 21
-224.7025267330057
 31
0.0
1001
TCAD
1000
TCW_CUSTOM_DATA
1002
{
1000
#$AUX@_ToolInfo Properties
1070
     8
1000
CMD_LINE@
1002
}
  0
LINE
  5
7C
330
1F
100
AcDbEntity
  8
0
  6
Continuous
 62
     7
370
     0
100
AcDbLine
 10
720.449076885878
 20
-210.9366676945916
 30
0.0
 11
720.449076885878
 21
-224.703944277198
 31
0.0
1001
TCAD
1000
TCW_CUSTOM_DATA
1002
{
1000
#$AUX@_ToolInfo Properties
1070
     8
1000
CMD_LINE@
1002
}
  0
LINE
  5
7D
330
1F
100
AcDbEntity
  8
0
  6
Continuous
 62
     5
420
      255
370
     0
100
AcDbLine
 10
580.0165665125147
 20
-204.8788724023624
 30
0.0
 11
580.0165665125147
 21
-224.6685822338696
 31
0.0
1001
TCAD
1000
TCW_CUSTOM_DATA
1002
{
1000
#$AUX@_ToolInfo Properties
1070
     8
1000
CMD_LINE@
1002
}
  0
LINE
  5
7E
330
1F
100
AcDbEntity
  8
0
  6
Continuous
 62
     5
420
      255
370
     0
100
AcDbLine
 10
630.0151984607782
 20
-205.4248445500968
 30
0.0
 11
630.0151984607782
 21
-224.7060886567545
 31
0.0
1001
TCAD
1000
TCW_CUSTOM_DATA
1002
{
1000
#$AUX@_ToolInfo Properties
1070
     8
1000
CMD_LINE@
1002
}
  0
TEXT
  5
80
330
1F
100
AcDbEntity
  8
0
  6
Continuous
 62
     7
100
AcDbText
 10
580.6570341936766
 20
-216.5294367264945
 30
0.0
 40
2.604514789581299
  1
50
  7
_TCW_TXTSTY_8
 11
580.6570341936766
 21
-213.9249219369132
 31
0.0
100
AcDbText
 73
     3
1001
TCAD
1000
TCW40_TEXT
1002
{
1000
Times New Roman Baltic
1070
     0
1070
   257
1002
}
1000
TCW_CUSTOM_DATA
1002
{
1000
#$AUX@_ToolInfo Properties
1070
     8
1000
CMD_TEXT@
1002
}
  0
TEXT
  5
82
330
1F
100
AcDbEntity
  8
0
  6
Continuous
 62
     7
100
AcDbText
 10
630.6238609842225
 20
-216.5294367264945
 30
0.0
 40
2.604514789581299
  1
100
  7
_TCW_TXTSTY_9
 11
630.6238609842225
 21
-213.9249219369132
 31
0.0
100
AcDbText
 73
     3
1001
TCAD
1000
TCW40_TEXT
1002
{
1000
Times New Roman Baltic
1070
     0
1070
   257
1002
}
1000
TCW_CUSTOM_DATA
1002
{
1000
#$AUX@_ToolInfo Properties
1070
     8
1000
CMD_TEXT@
1002
}
  0
LINE
  5
83
330
1F
100
AcDbEntity
  8
0
  6
Continuous
 62
     5
420
      255
370
     0
100
AcDbLine
 10
520.015132700423
 20
-209.7026932631456
 30
0.0
 11
520.015132700423
 21
-224.7026932631456
 31
0.0
1001
TCAD
1000
TCW_CUSTOM_DATA
1002
{
1000
#$AUX@_ToolInfo Properties
1070
     8
1000
CMD_LINE@
1002
}
  0
LINE
  5
84
330
1F
100
AcDbEntity
  8
0
  6
Continuous
 62
     5
420
      255
370
     0
100
AcDbLine
 10
500.3975843078035
 20
-243.2061438053187
 30
0.0
 11
686.9717870187478
 21
-243.2061438053187
 31
0.0
1001
TCAD
1000
TCW_ATTRIBUTE
1002
{
1000
Line/Polyline
1002
}
  0
INSERT
  5
89
330
1F
100
AcDbEntity
  8
0
  6
Continuous
 62
     7
100
AcDbBlockReference
  2
*E8
 10
0.0
 20
0.0
 30
0.0
1001
TCAD
1000
TC25ExternalObject
1002
{
1000
TCW30CURVE
1000

1070
     0
1071
        0
1040
1.0
1040
0.0
1000
Continuous
1000
0
1071
       52
1071
      162
1010
530.4344742731525
1020
-241.6406243676658
1030
0.0
1071
     6274
1010
530.1939150426641
1020
-240.4353174855713
1030
0.0
1071
     6274
1010
531.2078067082705
1020
-239.4567682867313
1030
0.0
1071
      130
1010
532.2725855386454
1020
-238.4811438053186
1030
0.0
1071
     6274
1010
532.8744002686748
1020
-237.9297192586037
1030
0.0
1071
     6274
1010
533.4684316532852
1020
-237.3589130622255
1030
0.0
1071
      130
1010
534.1475855386454
1020
-236.9061438053186
1030
0.0
1071
     6274
1010
535.3499270042865
1020
-236.1045828282246
1030
0.0
1071
     6274
1010
536.6134304165399
1020
-235.3937678483251
1030
0.0
1071
      130
1010
537.8975855386454
1020
-234.7311438053186
1030
0.0
1071
     6274
1010
539.1166237508535
1020
-234.1021200878192
1030
0.0
1071
     6274
1010
540.369579255109
1020
-233.5345662558979
1030
0.0
1071
      130
1010
541.6475855386454
1020
-233.0361438053186
1030
0.0
1071
     6274
1010
542.8731982635774
1020
-232.5581548425952
1030
0.0
1071
     6274
1010
544.1316648726265
1020
-232.1639773802467
1030
0.0
1071
      130
1010
545.3975855386456
1020
-231.8061438053186
1030
0.0
1071
     6274
1010
547.8833068243262
1020
-231.1035132552329
1030
0.0
1071
     6274
1010
550.367092062789
1020
-230.3748949678692
1030
0.0
1071
      130
1010
552.8975855386456
1020
-229.8561438053186
1030
0.0
1071
     6274
1010
555.3740528381958
1020
-229.3484680089108
1030
0.0
1071
     6274
1010
557.8907113235683
1020
-229.0570374532787
1030
0.0
1071
      130
1010
560.3975855386456
1020
-228.7311438053186
1030
0.0
1071
     6274
1010
562.8916782743107
1020
-228.4069117496821
1030
0.0
1071
     6274
1010
565.3895499753859
1020
-228.0942464725631
1030
0.0
1071
      130
1010
567.8975855386456
1020
-227.9061438053186
1030
0.0
1071
     6274
1010
570.3925774148646
1020
-227.7190194146022
1030
0.0
1071
     6274
1010
572.8955863380061
1020
-227.6061438053186
1030
0.0
1071
      130
1010
575.3975855386456
1020
-227.6061438053186
1030
0.0
1071
     6274
1010
580.3985854386656
1020
-227.6061438053186
1030
0.0
1071
     6274
1010
585.4010960573712
1020
-227.6937930023645
1030
0.0
1071
      130
1010
590.3975855386456
1020
-227.9061438053186
1030
0.0
1071
     6274
1010
595.4036178722653
1020
-228.1189001794975
1030
0.0
1071
     6274
1010
600.4029913822637
1020
-228.4815762728081
1030
0.0
1071
      130
1010
605.3975855386456
1020
-228.8811438053186
1030
0.0
1071
     6274
1010
610.4041020592321
1020
-229.2816651269655
1030
0.0
1071
     6274
1010
615.4038452881442
1020
-229.7693167283898
1030
0.0
1071
      130
1010
620.3975855386456
1020
-230.3061438053186
1030
0.0
1071
     6274
1010
625.4046087619525
1020
-230.8443988018241
1030
0.0
1071
     6274
1010
630.412078300527
1020
-231.3957090238868
1030
0.0
1071
      130
1010
635.3975855386456
1020
-232.1061438053186
1030
0.0
1071
     6274
1010
640.4145095271509
1020
-232.8210554736806
1030
0.0
1071
     6274
1010
645.4037345846817
1020
-233.7197045157599
1030
0.0
1071
      130
1010
650.3975855386456
1020
-234.5811438053187
1030
0.0
1071
     6274
1010
655.4039998122017
1020
-235.4447502675071
1030
0.0
1071
     6274
1010
660.4108392957079
1020
-236.3103905366934
1030
0.0
1071
      130
1010
665.3975855386456
1020
-237.2811438053186
1030
0.0
1071
     6274
1010
667.9123326620778
1020
-237.7706812453468
1030
0.0
1071
     6274
1010
670.415074707499
1020
-238.3281035433762
1030
0.0
1071
      130
1010
672.8975855386456
1020
-238.9611438053186
1030
0.0
1071
     6274
1010
675.4171924625915
1020
-239.6036435709249
1030
0.0
1071
     6274
1010
677.9192781480455
1020
-240.3192400769647
1030
0.0
1071
      162
1010
680.3975855386456
1020
-241.1061438053186
1030
0.0
1070
     3
1071
-2147483635
1000
$SPLINESEGS
1070
    18
1070
    19
1000
$SPLFRAME
1070
    18
1070
     0
1000
$SPLINETYPE
1070
    18
1070
     1
1000
$SHOWCONTRPTS
1070
    18
1070
     1
1000
$CURVESMOOTH
1070
    18
1070
     1
1000
DEGREE
1070
    19
1071
        3
1000
RATIONAL
1070
    17
1070
 16640
1000
SPLINECLOSED
1070
    17
1070
 20480
1000
NPOINTS
1070
     3
1071
        0
1000
NKNOTS
1070
     3
1071
        0
1000
WEIGHTS
1070
  8204
1070
    12
1070
     8
1004
0000000000000000
1070
    16
1000
KNOTS
1070
  8204
1070
    12
1070
     8
1004
0000000000000000
1070
    16
1000
REALDEGREE
1070
    19
1071
        3
1002
}
  0
LINE
  5
8A
330
1F
100
AcDbEntity
  8
0
  6
Continuous
 62
     7
370
     0
100
AcDbLine
 10
680.3975855386456
 20
-241.1061438053186
 30
0.0
 11
680.3975855386456
 21
-243.2061438053187
 31
0.0
1001
TCAD
1000
TCW_ATTRIBUTE
1002
{
1000
Line/Polyline
1002
}
  0
LINE
  5
8B
330
1F
100
AcDbEntity
  8
0
  6
Continuous
 62
     5
420
      255
370
     0
100
AcDbLine
 10
530.3975855386454
 20
-241.1116127536386
 30
0.0
 11
530.3975855386454
 21
-258.2044547049913
 31
0.0
1001
TCAD
1000
TCW_ATTRIBUTE
1002
{
1000
Line/Polyline
1002
}
  0
LINE
  5
8C
330
1F
100
AcDbEntity
  8
0
  6
Continuous
 62
     5
420
      255
370
     0
100
AcDbLine
 10
680.3975855386456
 20
-241.0961095288637
 30
0.0
 11
680.3975855386456
 21
-258.2285993152651
 31
0.0
1001
TCAD
1000
TCW_ATTRIBUTE
1002
{
1000
Line/Polyline
1002
}
  0
INSERT
  5
91
330
1F
100
AcDbEntity
  8
0
  6
Continuous
 62
     7
100
AcDbBlockReference
  2
*E9
 10
0.0
 20
0.0
 30
0.0
1001
TCAD
1000
TC25ExternalObject
1002
{
1000
TCW30CURVE
1000

1070
     0
1071
        0
1040
1.0
1040
0.0
1000
Continuous
1000
0
1071
       22
1071
      162
1010
669.2405605886522
1020
-238.0889664696037
1030
0.0
1071
     6274
1010
669.9665990083065
1020
-238.2419749447139
1030
0.0
1071
     6274
1010
670.6897112588225
1020
-238.4095929184925
1030
0.0
1071
      130
1010
671.4090236379212
1020
-238.5916178660818
1030
0.0
1071
     6274
1010
673.0702432918195
1020
-239.0119963125283
1030
0.0
1071
     6274
1010
674.7276809240177
1020
-239.4475330428719
1030
0.0
1071
      130
1010
676.3815337329465
1020
-239.8960190104701
1030
0.0
1071
     6274
1010
677.081885655001
1020
-240.0859379728628
1030
0.0
1071
     6274
1010
677.7763201662505
1020
-240.2971849368366
1030
0.0
1071
      130
1010
678.471068050537
1020
-240.5066781450344
1030
0.0
1071
     6274
1010
679.1264690723526
1020
-240.7043067608555
1030
0.0
1071
     6274
1010
679.7789547666194
1020
-240.9114988730884
1030
0.0
1071
      130
1010
680.4318239109306
1020
-241.1173372795986
1030
0.0
1071
     6274
1010
681.7926818726735
1020
-241.5463923770447
1030
0.0
1071
     6274
1010
683.1528985241738
1020
-241.9774911373339
1030
0.0
1071
      130
1010
684.5122316315063
1020
-242.4113530646716
1030
0.0
1071
     6274
1010
685.3286375628429
1020
-242.6719274955811
1030
0.0
1071
     6274
1010
686.143118378692
1020
-242.938498343094
1030
0.0
1071
      130
1010
686.959022313288
1020
-243.2006403814554
1030
0.0
1071
     6274
1010
688.289426893958
1020
-243.6280864983745
1030
0.0
1071
     6274
1010
687.6355741937928
1020
-243.4021097602449
1030
0.0
1071
      162
1010
688.9641213137165
1020
-243.8352945721659
1030
0.0
1070
     3
1071
-2147483635
1000
$SPLINESEGS
1070
    18
1070
    20
1000
$SPLFRAME
1070
    18
1070
     0
1000
$SPLINETYPE
1070
    18
1070
     1
1000
$SHOWCONTRPTS
1070
    18
1070
     1
1000
$CURVESMOOTH
1070
    18
1070
     1
1000
DEGREE
1070
    19
1071
        3
1000
RATIONAL
1070
    17
1070
 16640
1000
SPLINECLOSED
1070
    17
1070
 20480
1000
NPOINTS
1070
     3
1071
        0
1000
NKNOTS
1070
     3
1071
        0
1000
WEIGHTS
1070
  8204
1070
    12
1070
     8
1004
0000000000000000
1070
    16
1000
KNOTS
1070
  8204
1070
    12
1070
     8
1004
0000000000000000
1070
    16
1000
REALDEGREE
1070
    19
1071
        3
1002
}
1000
TCW_CUSTOM_DATA
1002
{
1000
#$AUX@_ToolInfo Properties
1070
     8
1000
CMD_BEZIER@
1002
}
  0
LINE
  5
92
330
1F
100
AcDbEntity
  8
0
  6
Continuous
 62
     5
420
      255
370
     0
100
AcDbLine
 10
690.8312867368464
 20
-258.1810090658584
 30
0.0
 11
690.8312867368464
 21
-244.2846562391106
 31
0.0
1001
TCAD
1000
TCW_CUSTOM_DATA
1002
{
1000
#$AUX@_ToolInfo Properties
1070
     8
1000
CMD_LINE@
1002
}
  0
ARC
  5
93
330
1F
100
AcDbEntity
  8
0
  6
Continuous
 62
     7
370
     0
100
AcDbCircle
 10
528.9020769431344
 20
-241.7081342678541
 30
0.0
 40
1.500000000000017
100
AcDbArc
 50
-85.52039373527079
 51
0.0
1001
TCAD
1000
TCW_CUSTOM_DATA
1002
{
1000
#$AUX@_ToolInfo Properties
1070
     8
1000
CMD_CENTERPTCIRCLE@
1002
}
  0
LINE
  5
94
330
1F
100
AcDbEntity
  8
0
  6
Continuous
 62
     5
420
      255
370
     0
100
AcDbLine
 10
692.4393209143839
 20
-244.4403097689506
 30
0.0
 11
720.8312954423051
 21
-244.4403097689506
 31
0.0
1001
TCAD
1000
TCW_CUSTOM_DATA
1002
{
1000
#$AUX@_ToolInfo Properties
1070
     8
1000
CMD_LINE@
1002
}
  0
TEXT
  5
96
330
1F
100
AcDbEntity
  8
0
  6
Continuous
 62
     7
100
AcDbText
 10
531.0888875898106
 20
-249.9030295221247
 30
0.0
 40
2.604514789581299
  1
0 vonal
  7
_TCW_TXTSTY_A
 11
531.0888875898106
 21
-247.2985147325435
 31
0.0
100
AcDbText
 73
     3
1001
TCAD
1000
TCW40_TEXT
1002
{
1000
Times New Roman Baltic
1070
     0
1070
   257
1002
}
1000
TCW_CUSTOM_DATA
1002
{
1000
#$AUX@_ToolInfo Properties
1070
     8
1000
CMD_TEXT@
1002
}
  0
TEXT
  5
98
330
1F
100
AcDbEntity
  8
0
  6
Continuous
 62
     7
100
AcDbText
 10
663.3052848962653
 20
-249.8747974626875
 30
0.0
 40
2.604514789581299
  1
150 vonal
  7
_TCW_TXTSTY_B
 11
663.3052848962653
 21
-247.2702826731062
 31
0.0
100
AcDbText
 73
     3
1001
TCAD
1000
TCW40_TEXT
1002
{
1000
Times New Roman Baltic
1070
     0
1070
   257
1002
}
1000
TCW_CUSTOM_DATA
1002
{
1000
#$AUX@_ToolInfo Properties
1070
     8
1000
CMD_TEXT@
1002
}
  0
LINE
  5
99
330
1F
100
AcDbEntity
  8
0
  6
Continuous
 62
     7
370
     0
100
AcDbLine
 10
500.3975843078036
 20
-243.206143439003
 30
0.0
 11
500.3975843078036
 21
-258.206143439003
 31
0.0
1001
TCAD
1000
TCW_CUSTOM_DATA
1002
{
1000
#$AUX@_ToolInfo Properties
1070
     8
1000
CMD_LINE@
1002
}
  0
LINE
  5
9A
330
1F
100
AcDbEntity
  8
0
  6
Continuous
 62
     7
370
     0
100
AcDbLine
 10
500.3983206805666
 20
-258.2061689992586
 30
0.0
 11
720.8312954423052
 21
-258.2061689992586
 31
0.0
1001
TCAD
1000
TCW_CUSTOM_DATA
1002
{
1000
#$AUX@_ToolInfo Properties
1070
     8
1000
CMD_LINE@
1002
}
  0
LINE
  5
9B
330
1F
100
AcDbEntity
  8
0
  6
Continuous
 62
     7
370
     0
100
AcDbLine
 10
720.8312889086344
 20
-244.4403099608446
 30
0.0
 11
720.8312889086344
 21
-258.2075865434509
 31
0.0
1001
TCAD
1000
TCW_CUSTOM_DATA
1002
{
1000
#$AUX@_ToolInfo Properties
1070
     8
1000
CMD_LINE@
1002
}
  0
INSERT
  5
A0
330
1F
100
AcDbEntity
  8
0
  6
Continuous
 62
     7
100
AcDbBlockReference
  2
*E10
 10
0.0
 20
0.0
 30
0.0
1001
TCAD
1000
TC25ExternalObject
1002
{
1000
TCW30CURVE
1000

1070
     0
1071
        0
1040
1.0
1040
0.0
1000
Continuous
1000
0
1071
       16
1071
      162
1010
688.0203173782396
1020
-243.539620564088
1030
0.0
1071
     6274
1010
688.1405871739505
1020
-243.5771492491305
1030
0.0
1071
     6274
1010
688.2607624475805
1020
-243.6149822056436
1030
0.0
1071
      130
1010
688.3808408934684
1020
-243.6531187077711
1030
0.0
1071
     6274
1010
688.5200285302371
1020
-243.6973242233114
1030
0.0
1071
     6274
1010
688.6564288570959
1020
-243.7512511152036
1030
0.0
1071
      130
1010
688.7981134805389
1020
-243.7866459356337
1030
0.0
1071
     6274
1010
689.4051055279311
1020
-243.9382811236864
1030
0.0
1071
     6274
1010
690.0087236043781
1020
-244.1105429504297
1030
0.0
1071
      130
1010
690.6257674116669
1020
-244.2139330647533
1030
0.0
1071
     6274
1010
691.3127075330248
1020
-244.3290348076795
1030
0.0
1071
     6274
1010
692.0100605851153
1020
-244.3699440353303
1030
0.0
1071
      130
1010
692.7029503500536
1020
-244.4409293521197
1030
0.0
1071
     6274
1010
692.7488880727716
1020
-244.4456355896263
1030
0.0
1071
     6274
1010
692.7955471261432
1020
-244.4456355896263
1030
0.0
1071
      162
1010
692.8414848488612
1020
-244.4409293521197
1030
0.0
1070
     3
1071
-2147483635
1000
$SPLINESEGS
1070
    18
1070
    20
1000
$SPLFRAME
1070
    18
1070
     0
1000
$SPLINETYPE
1070
    18
1070
     1
1000
$SHOWCONTRPTS
1070
    18
1070
     1
1000
$CURVESMOOTH
1070
    18
1070
     1
1000
DEGREE
1070
    19
1071
        3
1000
RATIONAL
1070
    17
1070
 16640
1000
SPLINECLOSED
1070
    17
1070
 20480
1000
NPOINTS
1070
     3
1071
        0
1000
NKNOTS
1070
     3
1071
        0
1000
WEIGHTS
1070
  8204
1070
    12
1070
     8
1004
0000000000000000
1070
    16
1000
KNOTS
1070
  8204
1070
    12
1070
     8
1004
0000000000000000
1070
    16
1000
REALDEGREE
1070
    19
1071
        3
1002
}
1000
TCW_CUSTOM_DATA
1002
{
1000
#$AUX@_ToolInfo Properties
1070
     8
1000
CMD_BEZIER@
1002
}
  0
LINE
  5
A1
330
1F
100
AcDbEntity
  8
0
  6
Continuous
 62
     5
420
      255
370
     0
100
AcDbLine
 10
580.3987785352712
 20
-227.6385611753999
 30
0.0
 11
580.3987785352712
 21
-258.1722245001226
 31
0.0
1001
TCAD
1000
TCW_CUSTOM_DATA
1002
{
1000
#$AUX@_ToolInfo Properties
1070
     8
1000
CMD_LINE@
1002
}
  0
LINE
  5
A2
330
1F
100
AcDbEntity
  8
0
  6
Continuous
 62
     5
420
      255
370
     0
100
AcDbLine
 10
630.3974104835346
 20
-231.446914200353
 30
0.0
 11
630.3974104835346
 21
-258.2097309230074
 31
0.0
1001
TCAD
1000
TCW_CUSTOM_DATA
1002
{
1000
#$AUX@_ToolInfo Properties
1070
     8
1000
CMD_LINE@
1002
}
  0
TEXT
  5
A4
330
1F
100
AcDbEntity
  8
0
  6
Continuous
 62
     7
100
AcDbText
 10
581.0392462164331
 20
-250.0330789927474
 30
0.0
 40
2.604514789581299
  1
50
  7
_TCW_TXTSTY_C
 11
581.0392462164331
 21
-247.4285642031661
 31
0.0
100
AcDbText
 73
     3
1001
TCAD
1000
TCW40_TEXT
1002
{
1000
Times New Roman Baltic
1070
     0
1070
   257
1002
}
1000
TCW_CUSTOM_DATA
1002
{
1000
#$AUX@_ToolInfo Properties
1070
     8
1000
CMD_TEXT@
1002
}
  0
TEXT
  5
A6
330
1F
100
AcDbEntity
  8
0
  6
Continuous
 62
     7
100
AcDbText
 10
631.0060730069789
 20
-250.0330789927475
 30
0.0
 40
2.604514789581299
  1
100
  7
_TCW_TXTSTY_D
 11
631.0060730069789
 21
-247.4285642031662
 31
0.0
100
AcDbText
 73
     3
1001
TCAD
1000
TCW40_TEXT
1002
{
1000
Times New Roman Baltic
1070
     0
1070
   257
1002
}
1000
TCW_CUSTOM_DATA
1002
{
1000
#$AUX@_ToolInfo Properties
1070
     8
1000
CMD_TEXT@
1002
}
  0
LINE
  5
A7
330
1F
100
AcDbEntity
  8
0
  6
Continuous
 62
     5
420
      255
370
     0
100
AcDbLine
 10
520.3973447231795
 20
-243.2063355293985
 30
0.0
 11
520.3973447231795
 21
-258.2063355293985
 31
0.0
1001
TCAD
1000
TCW_CUSTOM_DATA
1002
{
1000
#$AUX@_ToolInfo Properties
1070
     8
1000
CMD_LINE@
1002
}
  0
TEXT
  5
A9
330
1F
100
AcDbEntity
  8
0
  6
Continuous
 62
     7
100
AcDbText
 10
698.6307152795695
 20
-197.1525279824046
 30
0.0
 40
2.604514789581299
  1
B 753662 g
  7
_TCW_TXTSTY_E
 11
698.6307152795695
 21
-194.5480131928234
 31
0.0
100
AcDbText
 73
     3
1001
TCAD
1000
TCW40_TEXT
1002
{
1000
Times New Roman Baltic
1070
     0
1070
   257
1002
}
1000
TCW_CUSTOM_DATA
1002
{
1000
#$AUX@_ToolInfo Properties
1070
     8
1000
CMD_TEXT@
1002
}
  0
MTEXT
  5
AB
330
1F
100
AcDbEntity
  8
0
  6
Continuous
 62
     7
100
AcDbMText
 10
699.6668201252012
 20
-215.843376811854
 30
0.0
 40
2.604514789581299
 41
19.86875133262936
 71
     1
 72
     1
  1
{B 753662 g\Palsу нv}
  7
_TCW_TXTSTY_F
 73
     1
 44
1.0
1001
TCAD
1000
TCW40_TEXT
1002
{
1000
Times New Roman Baltic
1070
     0
1070
   257
1002
}
1000
TCW_CUSTOM_DATA
1002
{
1000
#$AUX@_ToolInfo Properties
1070
     8
1000
CMD_TEXT@
1002
}
  0
MTEXT
  5
AC
330
1F
100
AcDbEntity
  8
0
  6
Continuous
 62
     7
100
AcDbMText
 10
699.7534276643879
 20
-248.6864808220303
 30
0.0
 40
2.604514789581299
 41
19.86875133262947
 71
     1
 72
     1
  1
{B 753662 g\Pfels\U+0151 нv}
  7
_TCW_TXTSTY_F
 73
     1
 44
1.0
1001
TCAD
1000
TCW40_TEXT
1002
{
1000
Times New Roman Baltic
1070
     0
1070
   257
1002
}
1000
TCW_CUSTOM_DATA
1002
{
1000
#$AUX@_ToolInfo Properties
1070
     8
1000
CMD_TEXT@
1002
}
  0
LINE
  5
AD
330
1F
100
AcDbEntity
  8
0
  6
Continuous
 62
     5
420
      255
370
     0
100
AcDbLine
 10
720.0668714371537
 20
-270.4742099535175
 30
0.0
 11
540.1028386687132
 21
-270.4742099535175
 31
0.0
1001
TCAD
1000
TCW_ATTRIBUTE
1002
{
1000
Line/Polyline
1002
}
  0
INSERT
  5
B2
330
1F
100
AcDbEntity
  8
0
  6
Continuous
 62
     7
100
AcDbBlockReference
  2
*E11
 10
0.0
 20
0.0
 30
0.0
1001
TCAD
1000
TC25ExternalObject
1002
{
1000
TCW30CURVE
1000

1070
     0
1071
        0
1040
1.0
1040
0.0
1000
Continuous
1000
0
1071
       49
1071
      162
1010
688.1918702063117
1020
-270.4742099535175
1030
0.0
1071
     6274
1010
687.5505722444849
1020
-270.517359972715
1030
0.0
1071
     6274
1010
686.9413455500952
1020
-270.2712064148481
1030
0.0
1071
      130
1010
686.3055909990987
1020
-270.126716744167
1030
0.0
1071
     6274
1010
685.0747875175405
1020
-269.8469886801765
1030
0.0
1071
     6274
1010
683.8168702063118
1020
-269.6742099535174
1030
0.0
1071
      130
1010
682.5668702063117
1020
-269.4992099535174
1030
0.0
1071
     6274
1010
681.3168702063117
1020
-269.3242099535174
1030
0.0
1071
     6274
1010
680.0650963315222
1020
-269.161443872299
1030
0.0
1071
      130
1010
678.8168702063117
1020
-268.9742099535175
1030
0.0
1071
     6274
1010
677.5649767748193
1020
-268.7864259387936
1030
0.0
1071
     6274
1010
676.3227343653193
1020
-268.533286080325
1030
0.0
1071
      130
1010
675.0668702063117
1020
-268.3742099535174
1030
0.0
1071
     6274
1010
672.5717276219415
1020
-268.0581585594972
1030
0.0
1071
     6274
1010
670.069467866645
1020
-267.7994697195507
1030
0.0
1071
      130
1010
667.5668702063117
1020
-267.5492099535174
1030
0.0
1071
     6274
1010
665.0692227983982
1020
-267.2994452127261
1030
0.0
1071
     6274
1010
662.5754387578331
1020
-266.9620098528206
1030
0.0
1071
      130
1010
660.0668702063117
1020
-266.8742099535174
1030
0.0
1071
     6274
1010
657.5679004068388
1020
-266.7867460105359
1030
0.0
1071
     6274
1010
654.9639081362848
1020
-266.4865563662398
1030
0.0
1071
      130
1010
652.4678969700977
1020
-266.3367956962686
1030
0.0
1071
     6274
1010
649.9480475120247
1020
-266.1856047287842
1030
0.0
1071
     6274
1010
647.5844907935245
1020
-266.1588354632464
1030
0.0
1071
      130
1010
645.0668702063117
1020
-265.9742099535175
1030
0.0
1071
     6274
1010
640.0762729735128
1020
-265.6082328231121
1030
0.0
1071
     6274
1010
635.0698681080501
1020
-265.4742699115522
1030
0.0
1071
      130
1010
630.0668702063117
1020
-265.3742099535174
1030
0.0
1071
     6274
1010
625.0678699064117
1020
-265.2742299475194
1030
0.0
1071
     6274
1010
620.066539614102
1020
-265.3167137553278
1030
0.0
1071
      130
1010
615.0668702063117
1020
-265.3742099535174
1030
0.0
1071
     6274
1010
610.065878560806
1020
-265.4317213574407
1030
0.0
1071
     6274
1010
605.0646796812227
1020
-265.5317920982083
1030
0.0
1071
      130
1010
600.0668702063117
1020
-265.7192099535174
1030
0.0
1071
     6274
1010
595.0636314362704
1020
-265.906831407394
1030
0.0
1071
     6274
1010
590.0659323818232
1020
-266.2217620027765
1030
0.0
1071
      130
1010
585.0668702063117
1020
-266.4992099535174
1030
0.0
1071
     6274
1010
580.0658715076006
1020
-266.7767653812959
1030
0.0
1071
     6274
1010
575.0615373437242
1020
-267.0096099182114
1030
0.0
1071
      130
1010
570.0668702063117
1020
-267.3842099535174
1030
0.0
1071
     6274
1010
565.0602717014199
1020
-267.7597048413843
1030
0.0
1071
     6274
1010
560.0639153739178
1020
-268.2628308905371
1030
0.0
1071
      130
1010
555.0668702063117
1020
-268.7492099535174
1030
0.0
1071
     6274
1010
552.563620349283
1020
-268.9928596062682
1030
0.0
1071
     6274
1010
550.0654819257597
1020
-269.2868696057809
1030
0.0
1071
      130
1010
547.5668702063117
1020
-269.5742099535174
1030
0.0
1071
     6274
1010
545.0654210470107
1020
-269.861876606837
1030
0.0
1071
     6274
1010
542.5653602380584
1020
-270.1618839039113
1030
0.0
1071
      162
1010
540.0668702063117
1020
-270.4742099535175
1030
0.0
1070
     3
1071
-2147483635
1000
$SPLINESEGS
1070
    18
1070
    19
1000
$SPLFRAME
1070
    18
1070
     0
1000
$SPLINETYPE
1070
    18
1070
     1
1000
$SHOWCONTRPTS
1070
    18
1070
     1
1000
$CURVESMOOTH
1070
    18
1070
     1
1000
DEGREE
1070
    19
1071
        3
1000
RATIONAL
1070
    17
1070
 16640
1000
SPLINECLOSED
1070
    17
1070
 20480
1000
NPOINTS
1070
     3
1071
        0
1000
NKNOTS
1070
     3
1071
        0
1000
WEIGHTS
1070
  8204
1070
    12
1070
     8
1004
0000000000000000
1070
    16
1000
KNOTS
1070
  8204
1070
    12
1070
     8
1004
0000000000000000
1070
    16
1000
REALDEGREE
1070
    19
1071
        3
1002
}
  0
LINE
  5
B3
330
1F
100
AcDbEntity
  8
0
  6
Continuous
 62
     5
420
      255
370
     0
100
AcDbLine
 10
690.0668702063117
 20
-270.4668351189452
 30
0.0
 11
690.0668702063117
 21
-285.4725208531901
 31
0.0
1001
TCAD
1000
TCW_ATTRIBUTE
1002
{
1000
Line/Polyline
1002
}
  0
LINE
  5
B4
330
1F
100
AcDbEntity
  8
0
  6
Continuous
 62
     5
420
      255
370
     0
100
AcDbLine
 10
540.0668702063117
 20
-270.4473361147668
 30
0.0
 11
540.0668702063117
 21
-285.4966654634638
 31
0.0
1001
TCAD
1000
TCW_ATTRIBUTE
1002
{
1000
Line/Polyline
1002
}
  0
INSERT
  5
B9
330
1F
100
AcDbEntity
  8
0
  6
Continuous
 62
     7
100
AcDbBlockReference
  2
*E12
 10
0.0
 20
0.0
 30
0.0
1001
TCAD
1000
TC25ExternalObject
1002
{
1000
TCW30CURVE
1000

1070
     0
1071
        0
1040
1.0
1040
0.0
1000
Continuous
1000
0
1071
       22
1071
      162
1010
548.6960986711432
1020
-269.4447100894558
1030
0.0
1071
     6274
1010
548.5236511518838
1020
-269.463641131218
1030
0.0
1071
     6274
1010
548.3512529850128
1020
-269.4830272704646
1030
0.0
1071
      130
1010
548.1789077714612
1020
-269.5028681022715
1030
0.0
1071
     6274
1010
547.8430618223506
1020
-269.5415315664434
1030
0.0
1071
     6274
1010
547.5073416433946
1020
-269.581280408239
1030
0.0
1071
      130
1010
547.1715279067428
1020
-269.6202226638459
1030
0.0
1071
     6274
1010
546.7028223870859
1020
-269.6745755629643
1030
0.0
1071
     6274
1010
546.2339591422198
1020
-269.7275738467524
1030
0.0
1071
      130
1010
545.7653502398598
1020
-269.7827535389263
1030
0.0
1071
     6274
1010
544.8771968386712
1020
-269.8873354856929
1030
0.0
1071
     6274
1010
543.9891888518147
1020
-269.9931529592982
1030
0.0
1071
      130
1010
543.1012459114963
1020
-270.0995070018687
1030
0.0
1071
     6274
1010
542.0903117980586
1020
-270.2205924059578
1030
0.0
1071
     6274
1010
541.0799721456924
1020
-270.3466634985103
1030
0.0
1071
      130
1010
540.0687209575378
1020
-270.4650716538527
1030
0.0
1071
     6274
1010
538.0052046409581
1020
-270.706690317373
1030
0.0
1071
     6274
1010
535.9397055541524
1020
-270.9313912730575
1030
0.0
1071
      130
1010
533.8769696651781
1020
-271.1795843827306
1030
0.0
1071
     6274
1010
532.0728379049616
1020
-271.3966616509459
1030
0.0
1071
     6274
1010
531.4344104851781
1020
-271.4742998780934
1030
0.0
1071
      162
1010
529.6328010557205
1020
-271.7114019917221
1030
0.0
1070
     3
1071
-2147483635
1000
$SPLINESEGS
1070
    18
1070
    20
1000
$SPLFRAME
1070
    18
1070
     0
1000
$SPLINETYPE
1070
    18
1070
     1
1000
$SHOWCONTRPTS
1070
    18
1070
     1
1000
$CURVESMOOTH
1070
    18
1070
     1
1000
DEGREE
1070
    19
1071
        3
1000
RATIONAL
1070
    17
1070
 16640
1000
SPLINECLOSED
1070
    17
1070
 20480
1000
NPOINTS
1070
     3
1071
        0
1000
NKNOTS
1070
     3
1071
        0
1000
WEIGHTS
1070
  8204
1070
    12
1070
     8
1004
0000000000000000
1070
    16
1000
KNOTS
1070
  8204
1070
    12
1070
     8
1004
0000000000000000
1070
    16
1000
REALDEGREE
1070
    19
1071
        3
1002
}
1000
TCW_CUSTOM_DATA
1002
{
1000
#$AUX@_ToolInfo Properties
1070
     8
1000
CMD_BEZIER@
1002
}
  0
LINE
  5
BA
330
1F
100
AcDbEntity
  8
0
  6
Continuous
 62
     5
420
      255
370
     0
100
AcDbLine
 10
529.6331690081108
 20
-285.4490752140572
 30
0.0
 11
529.6331690081108
 21
-271.7342704629979
 31
0.0
1001
TCAD
1000
TCW_CUSTOM_DATA
1002
{
1000
#$AUX@_ToolInfo Properties
1070
     8
1000
CMD_LINE@
1002
}
  0
LINE
  5
BB
330
1F
100
AcDbEntity
  8
0
  6
Continuous
 62
     5
420
      255
370
     0
100
AcDbLine
 10
529.6328044189426
 20
-271.7083759171493
 30
0.0
 11
499.6331603026522
 21
-271.7083759171493
 31
0.0
1001
TCAD
1000
TCW_CUSTOM_DATA
1002
{
1000
#$AUX@_ToolInfo Properties
1070
     8
1000
CMD_LINE@
1002
}
  0
TEXT
  5
BC
330
1F
100
AcDbEntity
  8
0
  6
Continuous
 62
     7
100
AcDbText
 10
678.0163379867726
 20
-277.1710956703236
 30
0.0
 40
2.604514789581299
  1
0 vonal
  7
_TCW_TXTSTY_F
 72
     2
 11
689.3755681551467
 21
-274.5665808807423
 31
0.0
100
AcDbText
 73
     3
1001
TCAD
1000
TCW40_TEXT
1002
{
1000
Times New Roman Baltic
1070
     0
1070
   260
1002
}
1000
TCW_CUSTOM_DATA
1002
{
1000
#$AUX@_ToolInfo Properties
1070
     8
1000
CMD_TEXT@
1002
}
  0
TEXT
  5
BE
330
1F
100
AcDbEntity
  8
0
  6
Continuous
 62
     7
100
AcDbText
 10
541.9518287389545
 20
-277.1428636108863
 30
0.0
 40
2.604514789581299
  1
150 vonal
  7
_TCW_TXTSTY_10
 72
     2
 11
557.1591708486919
 21
-274.538348821305
 31
0.0
100
AcDbText
 73
     3
1001
TCAD
1000
TCW40_TEXT
1002
{
1000
Times New Roman Baltic
1070
     0
1070
   260
1002
}
1000
TCW_CUSTOM_DATA
1002
{
1000
#$AUX@_ToolInfo Properties
1070
     8
1000
CMD_TEXT@
1002
}
  0
LINE
  5
BF
330
1F
100
AcDbEntity
  8
0
  6
Continuous
 62
     7
370
     0
100
AcDbLine
 10
720.0668714371536
 20
-270.4742095872018
 30
0.0
 11
720.0668714371536
 21
-285.4742095872018
 31
0.0
1001
TCAD
1000
TCW_CUSTOM_DATA
1002
{
1000
#$AUX@_ToolInfo Properties
1070
     8
1000
CMD_LINE@
1002
}
  0
LINE
  5
C0
330
1F
100
AcDbEntity
  8
0
  6
Continuous
 62
     7
370
     0
100
AcDbLine
 10
720.0661350643907
 20
-285.4742351474575
 30
0.0
 11
499.6331603026521
 21
-285.4742351474574
 31
0.0
1001
TCAD
1000
TCW_CUSTOM_DATA
1002
{
1000
#$AUX@_ToolInfo Properties
1070
     8
1000
CMD_LINE@
1002
}
  0
LINE
  5
C1
330
1F
100
AcDbEntity
  8
0
  6
Continuous
 62
     7
370
     0
100
AcDbLine
 10
499.6331668363229
 20
-271.7083761090434
 30
0.0
 11
499.6331668363229
 21
-285.4756526916497
 31
0.0
1001
TCAD
1000
TCW_CUSTOM_DATA
1002
{
1000
#$AUX@_ToolInfo Properties
1070
     8
1000
CMD_LINE@
1002
}
  0
LINE
  5
C2
330
1F
100
AcDbEntity
  8
0
  6
Continuous
 62
     5
420
      255
370
     0
100
AcDbLine
 10
640.0656772096861
 20
-265.6505808168141
 30
0.0
 11
640.0656772096861
 21
-285.4402906483214
 31
0.0
1001
TCAD
1000
TCW_CUSTOM_DATA
1002
{
1000
#$AUX@_ToolInfo Properties
1070
     8
1000
CMD_LINE@
1002
}
  0
LINE
  5
C3
330
1F
100
AcDbEntity
  8
0
  6
Continuous
 62
     5
420
      255
370
     0
100
AcDbLine
 10
590.0670452614227
 20
-266.1965529645486
 30
0.0
 11
590.0670452614227
 21
-285.4777970712062
 31
0.0
1001
TCAD
1000
TCW_CUSTOM_DATA
1002
{
1000
#$AUX@_ToolInfo Properties
1070
     8
1000
CMD_LINE@
1002
}
  0
TEXT
  5
C5
330
1F
100
AcDbEntity
  8
0
  6
Continuous
 62
     7
100
AcDbText
 10
635.71527504847
 20
-277.3011451409462
 30
0.0
 40
2.604514789581299
  1
50
  7
_TCW_TXTSTY_11
 72
     2
 11
639.4252095285242
 21
-274.6966303513649
 31
0.0
100
AcDbText
 73
     3
1001
TCAD
1000
TCW40_TEXT
1002
{
1000
Times New Roman Baltic
1070
     0
1070
   260
1002
}
1000
TCW_CUSTOM_DATA
1002
{
1000
#$AUX@_ToolInfo Properties
1070
     8
1000
CMD_TEXT@
1002
}
  0
TEXT
  5
C7
330
1F
100
AcDbEntity
  8
0
  6
Continuous
 62
     7
100
AcDbText
 10
583.8243922872424
 20
-277.3011451409462
 30
0.0
 40
2.604514789581299
  1
100
  7
_TCW_TXTSTY_12
 72
     2
 11
589.4583827379784
 21
-274.6966303513649
 31
0.0
100
AcDbText
 73
     3
1001
TCAD
1000
TCW40_TEXT
1002
{
1000
Times New Roman Baltic
1070
     0
1070
   260
1002
}
1000
TCW_CUSTOM_DATA
1002
{
1000
#$AUX@_ToolInfo Properties
1070
     8
1000
CMD_TEXT@
1002
}
  0
LINE
  5
C8
330
1F
100
AcDbEntity
  8
0
  6
Continuous
 62
     5
420
      255
370
     0
100
AcDbLine
 10
700.0671110217778
 20
-270.4744016775974
 30
0.0
 11
700.0671110217778
 21
-285.4744016775974
 31
0.0
1001
TCAD
1000
TCW_CUSTOM_DATA
1002
{
1000
#$AUX@_ToolInfo Properties
1070
     8
1000
CMD_LINE@
1002
}
  0
LINE
  5
C9
330
1F
100
AcDbEntity
  8
0
  6
Continuous
 62
     5
420
      255
370
     0
100
AcDbLine
 10
720.4490834397295
 20
-307.4177602380406
 30
0.0
 11
533.8748807287852
 21
-307.4177602380406
 31
0.0
1001
TCAD
1000
TCW_ATTRIBUTE
1002
{
1000
Line/Polyline
1002
}
  0
INSERT
  5
CE
330
1F
100
AcDbEntity
  8
0
  6
Continuous
 62
     7
100
AcDbBlockReference
  2
*E13
 10
0.0
 20
0.0
 30
0.0
1001
TCAD
1000
TC25ExternalObject
1002
{
1000
TCW30CURVE
1000

1070
     0
1071
        0
1040
1.0
1040
0.0
1000
Continuous
1000
0
1071
       52
1071
      162
1010
690.4121934743805
1020
-305.8522408003877
1030
0.0
1071
     6274
1010
690.6527527048689
1020
-304.6469339182931
1030
0.0
1071
     6274
1010
689.6388610392626
1020
-303.6683847194532
1030
0.0
1071
      130
1010
688.5740822088875
1020
-302.6927602380405
1030
0.0
1071
     6274
1010
687.9722674788583
1020
-302.1413356913255
1030
0.0
1071
     6274
1010
687.3782360942479
1020
-301.5705294949474
1030
0.0
1071
      130
1010
686.6990822088875
1020
-301.1177602380405
1030
0.0
1071
     6274
1010
685.4967407432465
1020
-300.3161992609465
1030
0.0
1071
     6274
1010
684.2332373309931
1020
-299.605384281047
1030
0.0
1071
      130
1010
682.9490822088875
1020
-298.9427602380405
1030
0.0
1071
     6274
1010
681.7300439966796
1020
-298.3137365205411
1030
0.0
1071
     6274
1010
680.4770884924241
1020
-297.7461826886197
1030
0.0
1071
      130
1010
679.1990822088876
1020
-297.2477602380405
1030
0.0
1071
     6274
1010
677.9734694839557
1020
-296.7697712753171
1030
0.0
1071
     6274
1010
676.7150028749065
1020
-296.3755938129686
1030
0.0
1071
      130
1010
675.4490822088875
1020
-296.0177602380405
1030
0.0
1071
     6274
1010
672.9633609232069
1020
-295.3151296879548
1030
0.0
1071
     6274
1010
670.4795756847441
1020
-294.5865114005911
1030
0.0
1071
      130
1010
667.9490822088875
1020
-294.0677602380405
1030
0.0
1071
     6274
1010
665.4726149093373
1020
-293.5600844416327
1030
0.0
1071
     6274
1010
662.9559564239647
1020
-293.2686538860005
1030
0.0
1071
      130
1010
660.4490822088875
1020
-292.9427602380405
1030
0.0
1071
     6274
1010
657.9549894732223
1020
-292.618528182404
1030
0.0
1071
     6274
1010
655.4571177721472
1020
-292.305862905285
1030
0.0
1071
      130
1010
652.9490822088875
1020
-292.1177602380405
1030
0.0
1071
     6274
1010
650.4540903326684
1020
-291.9306358473241
1030
0.0
1071
     6274
1010
647.951081409527
1020
-291.8177602380405
1030
0.0
1071
      130
1010
645.4490822088875
1020
-291.8177602380405
1030
0.0
1071
     6274
1010
640.4480823088675
1020
-291.8177602380405
1030
0.0
1071
     6274
1010
635.4455716901618
1020
-291.9054094350864
1030
0.0
1071
      130
1010
630.4490822088875
1020
-292.1177602380405
1030
0.0
1071
     6274
1010
625.4430498752678
1020
-292.3305166122194
1030
0.0
1071
     6274
1010
620.4436763652693
1020
-292.69319270553
1030
0.0
1071
      130
1010
615.4490822088875
1020
-293.0927602380405
1030
0.0
1071
     6274
1010
610.442565688301
1020
-293.4932815596874
1030
0.0
1071
     6274
1010
605.4428224593888
1020
-293.9809331611116
1030
0.0
1071
      130
1010
600.4490822088875
1020
-294.5177602380405
1030
0.0
1071
     6274
1010
595.4420589855805
1020
-295.056015234546
1030
0.0
1071
     6274
1010
590.434589447006
1020
-295.6073254566086
1030
0.0
1071
      130
1010
585.4490822088875
1020
-296.3177602380405
1030
0.0
1071
     6274
1010
580.4321582203821
1020
-297.0326719064025
1030
0.0
1071
     6274
1010
575.4429331628513
1020
-297.9313209484818
1030
0.0
1071
      130
1010
570.4490822088875
1020
-298.7927602380406
1030
0.0
1071
     6274
1010
565.4426679353313
1020
-299.6563667002289
1030
0.0
1071
     6274
1010
560.4358284518252
1020
-300.5220069694153
1030
0.0
1071
      130
1010
555.4490822088875
1020
-301.4927602380405
1030
0.0
1071
     6274
1010
552.9343350854552
1020
-301.9822976780687
1030
0.0
1071
     6274
1010
550.431593040034
1020
-302.5397199760981
1030
0.0
1071
      130
1010
547.9490822088875
1020
-303.1727602380405
1030
0.0
1071
     6274
1010
545.4294752849415
1020
-303.8152600036468
1030
0.0
1071
     6274
1010
542.9273895994876
1020
-304.5308565096866
1030
0.0
1071
      162
1010
540.4490822088875
1020
-305.3177602380405
1030
0.0
1070
     3
1071
-2147483635
1000
$SPLINESEGS
1070
    18
1070
    19
1000
$SPLFRAME
1070
    18
1070
     0
1000
$SPLINETYPE
1070
    18
1070
     1
1000
$SHOWCONTRPTS
1070
    18
1070
     1
1000
$CURVESMOOTH
1070
    18
1070
     1
1000
DEGREE
1070
    19
1071
        3
1000
RATIONAL
1070
    17
1070
 16640
1000
SPLINECLOSED
1070
    17
1070
 20480
1000
NPOINTS
1070
     3
1071
        0
1000
NKNOTS
1070
     3
1071
        0
1000
WEIGHTS
1070
  8204
1070
    12
1070
     8
1004
0000000000000000
1070
    16
1000
KNOTS
1070
  8204
1070
    12
1070
     8
1004
0000000000000000
1070
    16
1000
REALDEGREE
1070
    19
1071
        3
1002
}
  0
LINE
  5
CF
330
1F
100
AcDbEntity
  8
0
  6
Continuous
 62
     7
370
     0
100
AcDbLine
 10
540.4490822088875
 20
-305.3177602380405
 30
0.0
 11
540.4490822088875
 21
-307.4177602380406
 31
0.0
1001
TCAD
1000
TCW_ATTRIBUTE
1002
{
1000
Line/Polyline
1002
}
  0
LINE
  5
D0
330
1F
100
AcDbEntity
  8
0
  6
Continuous
 62
     5
420
      255
370
     0
100
AcDbLine
 10
690.4490822088875
 20
-305.3232291863605
 30
0.0
 11
690.4490822088875
 21
-322.4160711377132
 31
0.0
1001
TCAD
1000
TCW_ATTRIBUTE
1002
{
1000
Line/Polyline
1002
}
  0
LINE
  5
D1
330
1F
100
AcDbEntity
  8
0
  6
Continuous
 62
     5
420
      255
370
     0
100
AcDbLine
 10
540.4490822088875
 20
-305.3077259615856
 30
0.0
 11
540.4490822088875
 21
-322.4402157479869
 31
0.0
1001
TCAD
1000
TCW_ATTRIBUTE
1002
{
1000
Line/Polyline
1002
}
  0
INSERT
  5
D6
330
1F
100
AcDbEntity
  8
0
  6
Continuous
 62
     7
100
AcDbBlockReference
  2
*E14
 10
0.0
 20
0.0
 30
0.0
1001
TCAD
1000
TC25ExternalObject
1002
{
1000
TCW30CURVE
1000

1070
     0
1071
        0
1040
1.0
1040
0.0
1000
Continuous
1000
0
1071
       22
1071
      162
1010
551.6061071588808
1020
-302.3005829023256
1030
0.0
1071
     6274
1010
550.8800687392265
1020
-302.4535913774358
1030
0.0
1071
     6274
1010
550.1569564887105
1020
-302.6212093512144
1030
0.0
1071
      130
1010
549.4376441096118
1020
-302.8032342988037
1030
0.0
1071
     6274
1010
547.7764244557136
1020
-303.2236127452501
1030
0.0
1071
     6274
1010
546.1189868235153
1020
-303.6591494755938
1030
0.0
1071
      130
1010
544.4651340145865
1020
-304.107635443192
1030
0.0
1071
     6274
1010
543.7647820925321
1020
-304.2975544055847
1030
0.0
1071
     6274
1010
543.0703475812826
1020
-304.5088013695585
1030
0.0
1071
      130
1010
542.375599696996
1020
-304.7182945777562
1030
0.0
1071
     6274
1010
541.7201986751804
1020
-304.9159231935774
1030
0.0
1071
     6274
1010
541.0677129809136
1020
-305.1231153058102
1030
0.0
1071
      130
1010
540.4148438366025
1020
-305.3289537123205
1030
0.0
1071
     6274
1010
539.0539858748596
1020
-305.7580088097666
1030
0.0
1071
     6274
1010
537.6937692233593
1020
-306.1891075700558
1030
0.0
1071
      130
1010
536.3344361160267
1020
-306.6229694973935
1030
0.0
1071
     6274
1010
535.5180301846901
1020
-306.883543928303
1030
0.0
1071
     6274
1010
534.7035493688411
1020
-307.1501147758159
1030
0.0
1071
      130
1010
533.8876454342451
1020
-307.4122568141773
1030
0.0
1071
     6274
1010
532.5572408535751
1020
-307.8397029310964
1030
0.0
1071
     6274
1010
533.2110935537403
1020
-307.6137261929667
1030
0.0
1071
      162
1010
531.8825464338165
1020
-308.0469110048878
1030
0.0
1070
     3
1071
-2147483635
1000
$SPLINESEGS
1070
    18
1070
    20
1000
$SPLFRAME
1070
    18
1070
     0
1000
$SPLINETYPE
1070
    18
1070
     1
1000
$SHOWCONTRPTS
1070
    18
1070
     1
1000
$CURVESMOOTH
1070
    18
1070
     1
1000
DEGREE
1070
    19
1071
        3
1000
RATIONAL
1070
    17
1070
 16640
1000
SPLINECLOSED
1070
    17
1070
 20480
1000
NPOINTS
1070
     3
1071
        0
1000
NKNOTS
1070
     3
1071
        0
1000
WEIGHTS
1070
  8204
1070
    12
1070
     8
1004
0000000000000000
1070
    16
1000
KNOTS
1070
  8204
1070
    12
1070
     8
1004
0000000000000000
1070
    16
1000
REALDEGREE
1070
    19
1071
        3
1002
}
1000
TCW_CUSTOM_DATA
1002
{
1000
#$AUX@_ToolInfo Properties
1070
     8
1000
CMD_BEZIER@
1002
}
  0
LINE
  5
D7
330
1F
100
AcDbEntity
  8
0
  6
Continuous
 62
     5
420
      255
370
     0
100
AcDbLine
 10
530.0153810106866
 20
-322.3926254985803
 30
0.0
 11
530.0153810106866
 21
-308.4962726718325
 31
0.0
1001
TCAD
1000
TCW_CUSTOM_DATA
1002
{
1000
#$AUX@_ToolInfo Properties
1070
     8
1000
CMD_LINE@
1002
}
  0
ARC
  5
D8
330
1F
100
AcDbEntity
  8
0
  6
Continuous
 62
     7
370
     0
100
AcDbCircle
 10
691.9445908043987
 20
-305.9197507005759
 30
0.0
 40
1.500000000000021
100
AcDbArc
 50
180.0
 51
265.5203937352665
1001
TCAD
1000
TCW_CUSTOM_DATA
1002
{
1000
#$AUX@_ToolInfo Properties
1070
     8
1000
CMD_CENTERPTCIRCLE@
1002
}
  0
LINE
  5
D9
330
1F
100
AcDbEntity
  8
0
  6
Continuous
 62
     5
420
      255
370
     0
100
AcDbLine
 10
528.4073468331492
 20
-308.6519262016724
 30
0.0
 11
500.015372305228
 21
-308.6519262016724
 31
0.0
1001
TCAD
1000
TCW_CUSTOM_DATA
1002
{
1000
#$AUX@_ToolInfo Properties
1070
     8
1000
CMD_LINE@
1002
}
  0
TEXT
  5
DB
330
1F
100
AcDbEntity
  8
0
  6
Continuous
 62
     7
100
AcDbText
 10
678.3985499893483
 20
-314.1146459548466
 30
0.0
 40
2.604514789581299
  1
0 vonal
  7
_TCW_TXTSTY_13
 72
     2
 11
689.7577801577224
 21
-311.5101311652653
 31
0.0
100
AcDbText
 73
     3
1001
TCAD
1000
TCW40_TEXT
1002
{
1000
Times New Roman Baltic
1070
     0
1070
   260
1002
}
1000
TCW_CUSTOM_DATA
1002
{
1000
#$AUX@_ToolInfo Properties
1070
     8
1000
CMD_TEXT@
1002
}
  0
TEXT
  5
DD
330
1F
100
AcDbEntity
  8
0
  6
Continuous
 62
     7
100
AcDbText
 10
542.3340407415303
 20
-314.0864138954094
 30
0.0
 40
2.604514789581299
  1
150 vonal
  7
_TCW_TXTSTY_14
 72
     2
 11
557.5413828512677
 21
-311.4818991058281
 31
0.0
100
AcDbText
 73
     3
1001
TCAD
1000
TCW40_TEXT
1002
{
1000
Times New Roman Baltic
1070
     0
1070
   260
1002
}
1000
TCW_CUSTOM_DATA
1002
{
1000
#$AUX@_ToolInfo Properties
1070
     8
1000
CMD_TEXT@
1002
}
  0
LINE
  5
DE
330
1F
100
AcDbEntity
  8
0
  6
Continuous
 62
     7
370
     0
100
AcDbLine
 10
720.4490834397294
 20
-307.4177598717249
 30
0.0
 11
720.4490834397294
 21
-322.4177598717249
 31
0.0
1001
TCAD
1000
TCW_CUSTOM_DATA
1002
{
1000
#$AUX@_ToolInfo Properties
1070
     8
1000
CMD_LINE@
1002
}
  0
LINE
  5
DF
330
1F
100
AcDbEntity
  8
0
  6
Continuous
 62
     7
370
     0
100
AcDbLine
 10
720.4483470669664
 20
-322.4177854319805
 30
0.0
 11
500.0153723052279
 21
-322.4177854319805
 31
0.0
1001
TCAD
1000
TCW_CUSTOM_DATA
1002
{
1000
#$AUX@_ToolInfo Properties
1070
     8
1000
CMD_LINE@
1002
}
  0
LINE
  5
E0
330
1F
100
AcDbEntity
  8
0
  6
Continuous
 62
     7
370
     0
100
AcDbLine
 10
500.0153788388986
 20
-308.6519263935665
 30
0.0
 11
500.0153788388986
 21
-322.4192029761728
 31
0.0
1001
TCAD
1000
TCW_CUSTOM_DATA
1002
{
1000
#$AUX@_ToolInfo Properties
1070
     8
1000
CMD_LINE@
1002
}
  0
INSERT
  5
E5
330
1F
100
AcDbEntity
  8
0
  6
Continuous
 62
     7
100
AcDbBlockReference
  2
*E15
 10
0.0
 20
0.0
 30
0.0
1001
TCAD
1000
TC25ExternalObject
1002
{
1000
TCW30CURVE
1000

1070
     0
1071
        0
1040
1.0
1040
0.0
1000
Continuous
1000
0
1071
       16
1071
      162
1010
532.8263503692934
1020
-307.7512369968098
1030
0.0
1071
     6274
1010
532.7060805735825
1020
-307.7887656818523
1030
0.0
1071
     6274
1010
532.5859052999525
1020
-307.8265986383655
1030
0.0
1071
      130
1010
532.4658268540646
1020
-307.864735140493
1030
0.0
1071
     6274
1010
532.3266392172959
1020
-307.9089406560333
1030
0.0
1071
     6274
1010
532.1902388904372
1020
-307.9628675479254
1030
0.0
1071
      130
1010
532.0485542669942
1020
-307.9982623683555
1030
0.0
1071
     6274
1010
531.4415622196019
1020
-308.1498975564083
1030
0.0
1071
     6274
1010
530.8379441431549
1020
-308.3221593831516
1030
0.0
1071
      130
1010
530.2209003358662
1020
-308.4255494974752
1030
0.0
1071
     6274
1010
529.5339602145083
1020
-308.5406512404014
1030
0.0
1071
     6274
1010
528.8366071624177
1020
-308.5815604680521
1030
0.0
1071
      130
1010
528.1437173974795
1020
-308.6525457848415
1030
0.0
1071
     6274
1010
528.0977796747615
1020
-308.6572520223482
1030
0.0
1071
     6274
1010
528.0511206213898
1020
-308.6572520223482
1030
0.0
1071
      162
1010
528.0051828986718
1020
-308.6525457848415
1030
0.0
1070
     3
1071
-2147483635
1000
$SPLINESEGS
1070
    18
1070
    20
1000
$SPLFRAME
1070
    18
1070
     0
1000
$SPLINETYPE
1070
    18
1070
     1
1000
$SHOWCONTRPTS
1070
    18
1070
     1
1000
$CURVESMOOTH
1070
    18
1070
     1
1000
DEGREE
1070
    19
1071
        3
1000
RATIONAL
1070
    17
1070
 16640
1000
SPLINECLOSED
1070
    17
1070
 20480
1000
NPOINTS
1070
     3
1071
        0
1000
NKNOTS
1070
     3
1071
        0
1000
WEIGHTS
1070
  8204
1070
    12
1070
     8
1004
0000000000000000
1070
    16
1000
KNOTS
1070
  8204
1070
    12
1070
     8
1004
0000000000000000
1070
    16
1000
REALDEGREE
1070
    19
1071
        3
1002
}
1000
TCW_CUSTOM_DATA
1002
{
1000
#$AUX@_ToolInfo Properties
1070
     8
1000
CMD_BEZIER@
1002
}
  0
LINE
  5
E6
330
1F
100
AcDbEntity
  8
0
  6
Continuous
 62
     5
420
      255
370
     0
100
AcDbLine
 10
640.4478892122619
 20
-291.8501776081218
 30
0.0
 11
640.4478892122619
 21
-322.3838409328445
 31
0.0
1001
TCAD
1000
TCW_CUSTOM_DATA
1002
{
1000
#$AUX@_ToolInfo Properties
1070
     8
1000
CMD_LINE@
1002
}
  0
LINE
  5
E7
330
1F
100
AcDbEntity
  8
0
  6
Continuous
 62
     5
420
      255
370
     0
100
AcDbLine
 10
590.4492572639984
 20
-295.6585306330749
 30
0.0
 11
590.4492572639984
 21
-322.4213473557293
 31
0.0
1001
TCAD
1000
TCW_CUSTOM_DATA
1002
{
1000
#$AUX@_ToolInfo Properties
1070
     8
1000
CMD_LINE@
1002
}
  0
TEXT
  5
E9
330
1F
100
AcDbEntity
  8
0
  6
Continuous
 62
     7
100
AcDbText
 10
636.0974870510457
 20
-314.2446954254693
 30
0.0
 40
2.604514789581299
  1
50
  7
_TCW_TXTSTY_15
 72
     2
 11
639.8074215311
 21
-311.640180635888
 31
0.0
100
AcDbText
 73
     3
1001
TCAD
1000
TCW40_TEXT
1002
{
1000
Times New Roman Baltic
1070
     0
1070
   260
1002
}
1000
TCW_CUSTOM_DATA
1002
{
1000
#$AUX@_ToolInfo Properties
1070
     8
1000
CMD_TEXT@
1002
}
  0
TEXT
  5
EB
330
1F
100
AcDbEntity
  8
0
  6
Continuous
 62
     7
100
AcDbText
 10
584.2066042898182
 20
-314.2446954254693
 30
0.0
 40
2.604514789581299
  1
100
  7
_TCW_TXTSTY_16
 72
     2
 11
589.8405947405541
 21
-311.640180635888
 31
0.0
100
AcDbText
 73
     3
1001
TCAD
1000
TCW40_TEXT
1002
{
1000
Times New Roman Baltic
1070
     0
1070
   260
1002
}
1000
TCW_CUSTOM_DATA
1002
{
1000
#$AUX@_ToolInfo Properties
1070
     8
1000
CMD_TEXT@
1002
}
  0
LINE
  5
EC
330
1F
100
AcDbEntity
  8
0
  6
Continuous
 62
     5
420
      255
370
     0
100
AcDbLine
 10
700.4493230243536
 20
-307.4179519621204
 30
0.0
 11
700.4493230243536
 21
-322.4179519621204
 31
0.0
1001
TCAD
1000
TCW_CUSTOM_DATA
1002
{
1000
#$AUX@_ToolInfo Properties
1070
     8
1000
CMD_LINE@
1002
}
  0
MTEXT
  5
EE
330
1F
100
AcDbEntity
  8
0
  6
Continuous
 62
     7
100
AcDbMText
 10
520.4154235969996
 20
-276.6150852263058
 30
0.0
 40
2.604514789581299
 41
19.86875133262919
 71
     3
 72
     1
  1
{B 753662 g\Palsу нv}
  7
_TCW_TXTSTY_17
 73
     1
 44
1.0
1001
TCAD
1000
TCW40_TEXT
1002
{
1000
Times New Roman Baltic
1070
     0
1070
   260
1002
}
1000
TCW_CUSTOM_DATA
1002
{
1000
#$AUX@_ToolInfo Properties
1070
     8
1000
CMD_TEXT@
1002
}
  0
MTEXT
  5
EF
330
1F
100
AcDbEntity
  8
0
  6
Continuous
 62
     7
100
AcDbMText
 10
521.0932400831451
 20
-312.8980972547522
 30
0.0
 40
2.604514789581299
 41
19.86875133262947
 71
     3
 72
     1
  1
{B 753662 g\Pfels\U+0151 нv}
  7
_TCW_TXTSTY_17
 73
     1
 44
1.0
1001
TCAD
1000
TCW40_TEXT
1002
{
1000
Times New Roman Baltic
1070
     0
1070
   260
1002
}
1000
TCW_CUSTOM_DATA
1002
{
1000
#$AUX@_ToolInfo Properties
1070
     8
1000
CMD_TEXT@
1002
}
  0
MTEXT
  5
F0
330
1F
100
AcDbEntity
  8
0
  6
Continuous
 62
     7
100
AcDbMText
 10
500.5373831104275
 20
-159.0109210174114
 30
0.0
 40
2.833842086791992
 41
109.9451396856458
 71
     1
 72
     1
  1
{B 753662 g szбrnyszelvйny C-150 mm kйtrйszes sablonja.\PFirst Stage repьl\U+0151gйpmodellekhez\PSRY MODELL 2007}
  7
_TCW_TXTSTY_17
 73
     1
 44
1.0
1001
TCAD
1000
TCW40_TEXT
1002
{
1000
Times New Roman Baltic
1070
     0
1070
   257
1002
}
1000
TCW_CUSTOM_DATA
1002
{
1000
#$AUX@_ToolInfo Properties
1070
     8
1000
CMD_TEXT@
1002
}
  0
ENDSEC
  0
SECTION
  2
OBJECTS
  0
DICTIONARY
  5
C
330
0
100
AcDbDictionary
281
     1
  3
ACAD_GROUP
350
D
  3
ACAD_LAYOUT
350
1A
  3
ACAD_MLINESTYLE
350
17
  3
ACAD_PLOTSETTINGS
350
19
  3
ACAD_PLOTSTYLENAME
350
E
  0
DICTIONARY
  5
D
102
{ACAD_REACTORS
330
C
102
}
330
C
100
AcDbDictionary
281
     1
  0
DICTIONARY
  5
1A
102
{ACAD_REACTORS
330
C
102
}
330
C
100
AcDbDictionary
281
     1
  3
Model
350
22
  3
Paper 1
350
1E
  0
DICTIONARY
  5
17
102
{ACAD_REACTORS
330
C
102
}
330
C
100
AcDbDictionary
281
     1
  3
Standard
350
18
  0
DICTIONARY
  5
19
102
{ACAD_REACTORS
330
C
102
}
330
C
100
AcDbDictionary
281
     1
  0
ACDBDICTIONARYWDFLT
  5
E
102
{ACAD_REACTORS
330
C
102
}
330
C
100
AcDbDictionary
281
     1
  3
Normal
350
F
100
AcDbDictionaryWithDefault
340
F
  0
LAYOUT
  5
22
102
{ACAD_REACTORS
330
1A
102
}
330
1A
100
AcDbPlotSettings
  1

  2
none_device
  4

  6

 40
7.0
 41
7.0
 42
7.0
 43
7.0
 44
297.0
 45
210.0
 46
-468.7322278724787
 47
338.2532613682339
 48
0.0
 49
0.0
140
0.0
141
0.0
142
1.0
143
1.0
 70
  1712
 72
     1
 73
     0
 74
     0
  7

 75
     0
 76
     0
 77
     2
 78
   300
147
1.0
148
0.0
149
0.0
100
AcDbLayout
  1
Model
 70
     1
 71
     0
 10
461.7322278724787
 20
-345.2532613682339
 11
758.7322278724787
 21
-135.2532613682339
 12
0.0
 22
0.0
 32
0.0
 14
461.7322278724787
 24
-345.2532613682339
 34
0.0
 15
758.7322278724787
 25
-135.2532613682339
 35
0.0
146
0.0
 13
0.0
 23
0.0
 33
0.0
 16
1.0
 26
0.0
 36
0.0
 17
0.0
 27
1.0
 37
0.0
 76
     0
330
1F
  0
LAYOUT
  5
1E
102
{ACAD_REACTORS
330
1A
102
}
330
1A
100
AcDbPlotSettings
  1

  2
none_device
  4

  6

 40
7.0
 41
7.0
 42
7.0
 43
7.0
 44
297.0
 45
210.0
 46
-7.0
 47
-7.0
 48
0.0
 49
0.0
140
0.0
141
0.0
142
1.0
143
1.0
 70
   688
 72
     1
 73
     0
 74
     5
  7

 75
    16
 76
     0
 77
     2
 78
   300
147
1.0
148
0.0
149
0.0
100
AcDbLayout
  1
Paper 1
 70
     1
 71
     1
 10
0.0
 20
0.0
 11
297.0
 21
210.0
 12
0.0
 22
0.0
 32
0.0
 14
0.0
 24
0.0
 34
0.0
 15
297.0
 25
210.0
 35
0.0
146
0.0
 13
0.0
 23
0.0
 33
0.0
 16
1.0
 26
0.0
 36
0.0
 17
0.0
 27
1.0
 37
0.0
 76
     0
330
1B
  0
MLINESTYLE
  5
18
102
{ACAD_REACTORS
330
17
102
}
330
17
100
AcDbMlineStyle
  2
Standard
 70
     0
  3

 62
   256
 51
90.0
 52
90.0
 71
     5
 49
0.5
 62
   256
  6
BYLAYER
 49
-0.5
 62
   256
  6
BYLAYER
 49
0.25
 62
     7
  6
BYLAYER
 49
0.0
 62
     7
  6
BYLAYER
 49
-0.25
 62
     7
  6
BYLAYER
  0
ACDBPLACEHOLDER
  5
F
102
{ACAD_REACTORS
330
E
102
}
330
E
  0
ENDSEC
  0
SECTION
  2
THUMBNAILIMAGE
 90
    16364
310
28000000B40000005500000001000800000000000000000000000000000000000000000000000000FFFFFF000000FF0000FFFF0000FF0000FFFF0000FF000000FF00FF000000000080808000C0C0C0000000FF007F7FFF000000A5005252A50000007F003F3F7F0000004C0026264C000000260013132600003FFF007F9FFF
310
000029A5005267A500001F7F003F4F7F0000134C00262F4C000009260013172600007FFF007FBFFF000052A500527CA500003F7F003F5F7F0000264C0026394C0000132600131C260000BFFF007FDFFF00007CA5005291A500005F7F003F6F7F0000394C0026424C00001C26001321260000FFFF007FFFFF0000A5A50052A5
310
A500007F7F003F7F7F00004C4C00264C4C00002626001326260000FFBF007FFFDF0000A57C0052A59100007F5F003F7F6F00004C3900264C420000261C001326210000FF7F007FFFBF0000A5520052A57C00007F3F003F7F5F00004C2600264C39000026130013261C0000FF3F007FFF9F0000A5290052A56700007F1F003F
310
7F4F00004C1300264C2F00002609001326170000FF00007FFF7F0000A5000052A55200007F00003F7F3F00004C0000264C260000260000132613003FFF00009FFF7F0029A5000067A552001F7F00004F7F3F00134C00002F4C260009260000172613007FFF0000BFFF7F0052A500007CA552003F7F00005F7F3F00264C0000
310
394C2600132600001C261300BFFF0000DFFF7F007CA5000091A552005F7F00006F7F3F00394C0000424C26001C26000021261300FFFF0000FFFF7F00A5A50000A5A552007F7F00007F7F3F004C4C00004C4C26002626000026261300FFBF0000FFDF7F00A57C0000A59152007F5F00007F6F3F004C3900004C422600261C00
310
0026211300FF7F0000FFBF7F00A5520000A57C52007F3F00007F5F3F004C2600004C39260026130000261C1300FF3F0000FF9F7F00A5290000A56752007F1F00007F4F3F004C1300004C2F26002609000026171300FF000000FF7F7F00A5000000A55252007F0000007F3F3F004C0000004C2626002600000026131300FF00
310
3F00FF7F9F00A5002900A55267007F001F007F3F4F004C0013004C262F002600090026131700FF007F00FF7FBF00A5005200A5527C007F003F007F3F5F004C0026004C2639002600130026131C00FF00BF00FF7FDF00A5007C00A55291007F005F007F3F6F004C0039004C26420026001C0026132100FF00FF00FF7FFF00A5
310
00A500A552A5007F007F007F3F7F004C004C004C264C002600260026132600BF00FF00DF7FFF007C00A5009152A5005F007F006F3F7F0039004C0042264C001C002600211326007F00FF00BF7FFF005200A5007C52A5003F007F005F3F7F0026004C0039264C00130026001C1326003F00FF009F7FFF002900A5006752A500
310
1F007F004F3F7F0013004C002F264C000900260017132600000000002D2D2D005B5B5B0089898900B7B7B700B3B3B30000000000000000000000000000000000000000000000000000000000000000000000070707070707070707070707070707070707070707070707070707070707070707070707070707070707070707
310
07050707070707070707070707070707070707070707070707070507070707070707070707070707070707070707070707070707070707070705070707070707070707070000000000000000000000000000000000000000000000000000000000000000000000000000000000000000000000000000000000000000000000
310
00000000000000000700000000070707070707000000000500000000000500000000000000000000000000000000000000000000000005000000000000000000000000000000000000000000000000050000000000000000000000000000000000000000000000000005000000000500000000000000000007000000000000
310
00000000000000000000000000000000000000000000000000000000000000000000000000000000000000000000000000000000000000000000000000070000000007070707070707000000050000000000050000000000000000000000000000000000000000000000000500000000000000000000000000000000000000
310
00000000000500000000000000000000000000000000000000000000000000050000000005000000000000000000070000000000000000000000000000000000000000000000000000000000000000000000000000000000000000000000000000000000000000000000000000000000000007000707070707070707070700
310
00000500000000000500000000000000000000000000000000000000000000000005000000000000000000000000000000000000000000000000050000000000000000000000000000000000000000000000000005000000000500000000000000000007000000000000000000000000000000000000000000000000000000
310
00000000000000000000000000000000000000000000000000000000000000000000000000000000070007070707070707070707000000050000000000050707070707070707000000000000000000000000000707070700000000000000000000000000000000000000000000070707000000000000000000000000000000
310
00000000070007070707050000000005000000000000000000070000000000000000000000000000000000000000000000000000000000000000000000000000000000000000000000000000000000000000000000000000000000000007000707070707070707000000000005000000000005070707070707070700000000
310
00000000000000000007070707000000000000000000000000000000000000000000000707070000000000000000000000000000000000000007070707070705000000000500000000000000000007000000000000000000000000000000000000000000000000000000000000000000000000000000000000000000000000
310
00000000000000000000000000000000000000070000000000000000000000000000050000000000050000000000000000000000000000000000000000000000000500000000000000000000000000000000000000000000000005000000000000000000000000000000000000000000000000000500000000050000000000
310
00000000070000000000000000000000000000000000000000000000000000000000000000000000000000000000000000000000000000000000000000000000000000000000000007050505050505050505050505050707070705050505050505050505050505050505050505050505050505050505050505050505050505
310
05050505050505050505050505050505050505050505050505050505050505050505050505050505050507050505050505050505050505050507000000000000000000000000000000000000000000000000000000000000000000000000000000000000000000000000000000000000000000000000000000000000000000
310
00000000000000000000000000000007070707070000000000000000000000000000000000000000000000000500000000000000000000000000000000000000000000000005000000000000000000000000000000000000000000000000000700000000000000000000000000000000000000000000000000000000000000
310
00000000000000000000000000000000000000000000000000000000000000000000000000000000000000000000000000000000000000000000000000000000000000000000000007070707000000000000000000000000000000000000000000050000000000000000000000000000000000000000000000000500000000
310
00000000000000000000000000000000000000000705000000000000000000000000000000000000000000000000000000000000000000000000000000000000000000000000000000000000000000000000000000000000000000000000000000000000000000000000000000000000000000000000000000000000000000
310
00070707070700000000000000000000000000000000000500000000000000000000000000000000000000000000000005000000000000000000000000000000000000000000000007070000000000000000000000000000000000000000000000000000000000000000000000000000000000000000000000000000000000
310
00000000000000000000000000000000000000000000000000000000000000000000000000000000000000000000000000000000000000000000000707070707070000000000000000000000050000000000000000000000000000000000000000000000000500000000000000000000000000000000000000000007070700
310
00000000000000000000000000000000000000000000000000000000000000000000000000000000000000000000000000000000000000000000000000000000000000000000000000000000000000000000000000000000000000000000000000000000000000000000000000000000000000000007070707070700000000
310
00000500000000000000000000000000000000000000000000000005000000000000000000000000000000000000000707070000000000000000000000000000000000000000000000000000000000000000000000000000000000000000000000000000000000000000000000000000000000000000000000000000000000
310
00000000000000000000000000000000000000000000000000000000000000000000000000000000000000000000000000070707070707050700000000000000000000000000000000000000000000000500000000000000000000000000000000070707070000000000000000000000000000000000000000000000000000
310
00000000000000000000000000000000000000000000000000000000000000000000000000000000000000000000000000000000000000000000000000000000000000000000000000000000000000000000000000000000000000000000000000000000000000000000000000070707070707070707070000000000000000
310
00000000000005000000000000000000000000070707070700000000000000000000000000000000000000000000000000000000000000000000000000000000000000000000000000000000000000000000000000000000000000000000000000000000000000000000000000000000000000000000000000000000000000
310
00000000000000000000000000000000000000000000000000000000000000000000000000000000000000000707070707070707070707070707070507070707070707070707070700000000000000000000000000000000000000000000000000000000000000000000000000000000000000000000000000000000000000
310
00000000000000000000000000000000000000000000000000000000000000000000000000000000000000000000000000000000000000000000000000000000000000000000000000000000000000000000000000000000000000000000000000000000000000000000000000000000000000000000000000000000000000
310
00000000000000000000000000000000000000000000000000000000000000000000000000000000000000000000000000000000000000000000000000000000000000000000000000000000000000000000000000000000000000000000000000000000000000000000000000000000000000000000000000000000000000
310
00000000000000000000000000000000000000000000000000000000000000000000000000000000000000000000000000000000000000000000000000000000000000000000000000000000000000000000000000000000000000000000000000000000000000000000000000000000000000000000000000000000000000
310
00000000000000000000000000000000000000000000000000000000000000000000000000000000000000000000000000000000000000000000000000000000000000000000000000000000000000000000000000000000000000000000000000000000000000000000000000000000000000000000000000000000000000
310
00000000000000000000000000000000000000000000000000000000000000000000000000000000000000000000000000000000000000000000000000000000000000000000000000070707070707070707070707070707070707070707070707070707070707070707070707070707070707070707070507070707070707
310
07070707070707070707070707070707070507070707070707070707070707070707070707070707070707070707070705070707070707070707070000000000000000000000000000000000000000000000000000000000000000000000000000000000000000000000000000000000000000000000000000000000000007
310
00000000070707070707000000000500000000050000000000000000000000000000000000000000000000000005000000000000000000000000000000000000000000000000050000000000000000000000000000000000000000000000000500000000000500000000000000000007000000000000000000000000000000
310
00000000000000000000000000000000000000000000000000000000000000000000000000000000000000000000000000000000070000000000070707070700000000050000000005000000000000000000000000000000000000000000000000000500000000000000000000000000000000000000000000000005000000
310
00000000000000000000000000000000000000000005000000000005000000000000000000070000000000000000000000000000000000000000000000000000000000000000000000000000000000000000000000000000000000000000000000000000000000000007070707070707070707070000000005000000000500
310
00000000000000000000000000000000000000000000000005000000000000000000000000000000000000000000000000050000000000000000000000000000000000000000000000000500000000000500000000000000000007000000000000000000000000000000000000000000000000000000000000000000000000
310
00000000000000000000000000000000000000000000000000000000000000070707070707070707070700000000050000000005000707070707070707000000000000000000000000000707070500000000000000000000000000000000000000000000070707000000000000000000000000000000000000070707070707
310
07000000000005000000000000000000070000000000000000000000000000000000000000000000000000000000000000000000000000000000000000000000000000000000000000000000000000000000000007000000000000000000000000000005000000000500070707070707070700000000000000000000000000
310
07070705000000000000000000000000000000000000000000000707070000000000000000000000000000000000000707070707070700000000000500000000000000000007000000000000000000000000000000000000000000000000000000000000000000000000000000000000000000000000000000000000000000
310
00000000000000000000070000000000000000000000000000050000000005000000000000000000000000000000000000000000000000000500000000000000000000000000000000000000000000000005000000000000000000000000000000000000000000000000050000000000050000000000000000000700000000
310
00000000000000000000000000000000000000000000000000000000000000000000000000000000000000000000000000000000000000000000000000000007050505050505050505050505050505070707070707070705050505050505050505050505050505050505050505050505050505050505050505050505050505
310
05050505050505050505050505050505050505050505050505050505050507070505050505050505050505050505050507000000000000000000000000000000000000000000000000000000000000000000000000000000000000000000000000000000000000000000000000000000000000000000000000000000000000
310
00000000000000000000000007070707070707070707000000000000000000000000000500000000000000000000000000000000000000000000000005000000000000000000000000000000070707070707070700000000000000000000000000000000000000000000000000000000000000000000000000000000000000
310
00000000000000000000000000000000000000000000000000000000000000000000000000000000000000000000000000000000000000000000000000000000000000000000000000000007070707070707070707070707050707000000000000000000000000000000000000000000000500070707070707070707070707
310
07070000000000000000000000000000000000000000000000000000000000000000000000000000000000000000000000000000000000000000000000000000000000000000000000000000000000000000000000000000000000000000000000000000000000000000000000000000000000000000000000000000000000
310
00000000000000000000000000000000000707070707070707070707070707070707070707070705070700000000000000000000000000000000000000000000000000000000000000000000000000000000000000000000000000000000000000000000000000000000000000000000000000000000000000000000000000
310
00000000000000000000000000000000000000000000000000000000000000000000000000000000000000000000000000000000000000000000000000000000000000000000000000000000000000000000000000000000000000000000000000000000000000000000000000000000000000000000000000000000000000
310
00000000000000000000000000000000000000000000000000000000000000000000000000000000000000000000000000000000000000000000000000000000000000000000000000000000000000000000000000000000000000000000000000000000000000000000000000000000000000000000000000000000000000
310
00000000000000000000000000000000000000000000000000000000000000000000000000000000000000000000000000000000000000000000000000000000000000000000000000000000000000000000000000000000000000000000000000000000000000000000000000000000000000000000000000000000000000
310
07070707070707070707050707070707070707070707070707070707070707070707070707070707070507070707070707070707070707070707070707070707070705070707070707070707070707070707070707070707070707070707070707070707070707070707070707070707070000000000000000000000000000
310
00000000000000000000000000000000000000000000000000000000000000000000000000000000000000000000000000000000000700000000000000000005000000000005000000000000000000000000000000000000000000000000050000000000000000000000000000000000000000000000000500000000000000
310
00000000000000000000000000000000000005000000000500000000000000000700000000000700000000000000000000000000000000000000000000000000000000000000000000000000000000000000000000000000000000000000000000000000000000000000070000000000000000000500000000000500000000
310
00000000000000000000000000000000000000000500000000000000000000000000000000000000000000000005000000000000000000000000000000000000000000000000000500000000050000000707070707070700000000070000000000000000000000000000000000000000000000000000000000000000000000
310
00000000000000000000000000000000000000000000000000000000000000000700000000000000000005000000000005000000000000000000000000000000000000000000000000050000000000000000000000000000000000000000000000000500000000000000000000000000000000000000000000000000050000
310
00000500000007070707070707070007000700000000000000000000000000000000000000000000000000000000000000000000000000000000000000000000000000000000000000000000000000000000000000070000000000000000000500000000000500000000000000000000000000000000000000000000000005
310
00000000000000000000000000000000000000000000000005000000000000000000000000000000000000000000000000000500000000050000000707070707070707070700070000000000000000000000000000000000000000000000000000000000000000000000000000000000000000000000000000000000000000
310
00000000000000000000000700000000000000000005000000000007070707070707000000000000000000000000000000000000070707000000000000000000000000000000000000000000000507070700000000000000000000000000070707070707070707050000000005000000070707070707070707070007000000
310
00000000000000000000000000000000000000000000000000000000000000000000000000000000000000000000000000000000000000000000000000000000070000000000000000000500000000000707000707070000000000000000000000000000000000000005070700000000000000000000000000000000000000
310
00000005070707000000000000000000000000000707070700070707000500000000050000000000000000000000000000070000000000000000000000000000000000000000000000000000000000000000000000000000000000000000000000000000000000000000000000000000000000000007000000000000000000
310
05000000000005000000000000000000000000000000000000000000000000050000000000000000000000000000000000000000000000000500000000000000000000000000000000000000000000000000050000000007070505050505050505050505050507000000000000000000000000000000000000000000000000
310
00000000000000000000000000000000000000000000000000000000000000000000000000000000000000070505050505050505050505050505070505050505050505050505050505050505050505050505050505050505050505050505050505050505050505050505050505050505050505050505050505050505050505
310
05050505050505050507070707070000000000000000000000000000000000000000000000000000000000000000000000000000000000000000000000000000000000000000000000000000000000000000000000000000000000000000000000000000000000000000000000000000070000000000000000000000000000
310
00000000000000000000050000000000000000000000000000000000000000000000000500000000000000000000000000000000000000000000000707070700000000000000000000000000000000000000000000000000000000000000000000000000000000000000000000000000000000000000000000000000000000
310
00000000000000000000000000000000000000000000000000000000000000000000000000000707000000000000000000000000000000000000000000000005000000000000000000000000000000000000000000000000050000000000000000000000000000000000000007070707070000000000000000000000000000
310
00000000000000000000000000000000000000000000000000000000000000000000000000000000000000000000000000000000000000000000000000000000000000000000000000000000000000000000000000000000000000000707000000000000000000000000000000000000000000000500000000000000000000
310
00000000000000000000000000000500000000000000000000000000000007070707070000000000000000000000000000000000000000000000000000000000000000000000000000000000000000000000000000000000000000000000000000000000000000000000000000000000000000000000000000000000000000
310
00000000000000000000000000000000000000070707000000000000000000000000000000000000000005000000000000000000000000000000000000000000000000050000000000000000000707070707070000000000000000000000000000000000000000000000000000000000000000000000000000000000000000
310
00000000000000000000000000000000000000000000000000000000000000000000000000000000000000000000000000000000000000000000000000000000000000000000000000000707070000000000000000000000000000000000000500000000000000000000000000000000000000000000000005000000070707
310
07070707000000000000000000000000000000000000000000000000000000000000000000000000000000000000000000000000000000000000000000000000000000000000000000000000000000000000000000000000000000000000000000000000000000000000000000000000000000000000000000000000000000
310
00000707070707000000000000000000000000000005000000000000000000000000000000000000000007070707050707070700000000000000000000000000000000000000000000000000000000000000000000000000000000000000000000000000000000000000000000000000000000000000000000000000000000
310
00000000000000000000000000000000000000000000000000000000000000000000000000000000000000000000000000000000000000000000000707070707070700000000000000000500000000000000000007070707070707070707070000000000000000000000000000000000000000000000000000000000000000
310
00000000000000000000000000000000000000000000000000000000000000000000000000000000000000000000000000000000000000000000000000000000000000000000000000000000000000000000000000000000000000000000000000000000000000000000000000000000000000000000070707070707070707
310
05070707070707070707000000000000000000000000000000000000000000000000000000000000000000000000000000000000000000000000000000000000000000000000000000000000000000000000000000000000000000000000000000000000000000000000000000000000000000000000000000000000000000
310
00000000000000000000000007070707070707070707050707070707070707070707070707070707070707070707070707070707070507070707070707070707070707070707070707070707070705070707070707070707070707070707070707070707070707070707070707070707070707070707070707070707070000
310
00000000000000000000000000000000000000000000000000000000000000000000000000000000000000000000000000000000000000000000000000000000000700000000000000000005000000000500000000000000000000000000000000000000000000000000050000000000000000000000000000000000000000
310
00000000050000000000000000000000000000000000000000000000000500000000000500000007070707070700000000000700000000000000000000000000000000000000000000000000000000000000000000000000000000000000000000000000000000000000000000000000000000000000070000000000000000
310
00050000000005000000000000000000000000000000000000000000000000000500000000000000000000000000000000000000000000000005000000000000000000000000000000000000000000000000050000000000050000000707070707070700000000070000000000000000000000000000000000000000000000
310
00000000000000000000000000000000000000000000000000000000000000000000000000000000000000000700000000000000000005000000000500000000000000000000000000000000000000000000000000050000000000000000000000000000000000000000000000000500000000000000000000000000000000
310
00000000000000000500000000000500000000070007070000000707000700000000000000000000000000000000000000000000000000000000000000000000000000000000000000000000000000000000000000000000000000000000000000070000000000000000000500000000050000000000000000000000000000
310
00000000000000000000000500000000000000000000000000000000000000000000000005000000000000000000000000000000000000000000000000050000000000050000000707070707070707070700070000000000000000000000000000000000000000000000000000000000000000000000000000000000000000
310
00000000000000000000000000000000000000000000000700000000000000000005000000000507070707070700000000000000000000000000000000000000070707000000000000000000000000000000000000000000000507070700000000000000000000000000070707070707070705000000000005000000070707
310
07070707070700000700000000000000000000000000000000000000000000000000000000000000000000000000000000000000000000000000000000000000000000000000000000000000070000000000000000000500000000050707000000070000000000000000000000000000000000000007070700000000000000
310
00000000000000000000000000000005070707000000000000000000000000000707070000070707050000000000050000000000000000000000000000070000000000000000000000000000000000000000000000000000000000000000000000000000000000000000000000000000000000000000000000000000000000
310
00000700000000000000000005000000000500000000000000000000000000000000000000000000000000050000000000000000000000000000000000000000000000000500000000000000000000000000000000000000000000000005000000000705050505050505050505050505050507000000000000000000000000
310
00000000000000000000000000000000000000000000000000000000000000000000000000000000000000000000000000000000000000070505050505050505050505050505050707070705050505050505050505050505050505050505050505050505050505050505050505050505050505050505050505050505050505
310
05050505050505050505050505050507070707070707070700000000000000000000000000000000000000000000000000000000000000000000000000000000000000000000000000000000000000000000000000000000000000000000000000000000000000000000000000000000000000000000000000000000000000
310
07070707070707070700000000000000000000000000050000000000000000000000000000000000000000000000000500000000000000000000070707070707070707070700000000000000000000000000000000000000000000000000000000000000000000000000000000000000000000000000000000000000000000
310
00000000000000000000000000000000000000000000000000000000000000000000000000000000000000000000000000000000000000000000000000070707070707070707070707070705070700000000000000000000000000000707070707070707050707070707070707070707000000000000000000000000000000
310
00000000000000000000000000000000000000000000000000000000000000000000000000000000000000000000000000000000000000000000000000000000000000000000000000000000000000000000000000000000000000000000000000000000000000000000000000000000000000000000000000000000000000
310
00000007070707070707070707070707070700000000000000000000000000000000000000000000000000000000000000000000000000000000000000000000000000000000000000000000000000000000000000000000000000000000000000000000000000000000000000000000000000000000000000000000000000
310
00000000000000000000000000000000000000000000000000000000000000000000000000000000000000000000000000000000000000000000000000000000000000000000000000000000000000000000000000000000000000000000000000000000000000000000000000000000000000000000000000000000000000
310
00000000000000000000000000000000000000000000000000000000000000000000000000000000000000000000000000000000000000000000000000000000000007070707070707070707050707070707070707070707070707070707070707070707070707070707070507070707070707070707070707070707070707
310
07070707070507070707070707070707070707070707070707070707070707070707070707070707070707070707070707070707000000000000000000000000000000000000000000000000000000000000000000000000000000000000000000000000000000000000000000000000000000000000000700000000000000
310
00000500000000050000000000000000000000000000000000000000000000000005000000000000000000000000000000000000000000000000050000000000000000000000000000000000000000000000000500000000000500000007070707070707070707000700000000000000000000000000000000000000000000
310
00000000000000000000000000000000000000000000000000000000000000000000000000000000000000000007000000000000000000050000000005000000000000000000000000000000000000000000000000000500000000000000000000000000000000000000000000000005000000000000000000000000000000
310
00000000000000000005000000000005000000070707070707070707070007000000000000000000000000000000000000000000000000000000000000000000000000000000000000000000000000000000000000000000000000000000000000000700000000000000000005000000000500000000000000000000000000
310
00000000000000000000000005000000000000000000000000000000000000000000000000050000000000000000000000000000000000000000000000000500000000000500000007070707070707070000000700000000000000000000000000000000000000000000000000000000000000000000000000000000000000
310
00000000000000000000000000000000000000000000000007000000000000000000050000000005070007070707000000000000000000000000000000000000000707070000000000000000000000000000000000000000000005070707000000000000000000000000000707070007070707050000000000050000000000
310
00000000000000000007000000000000000000000000000000000000000000000000000000000000000000000000000000000000000000000000000000000000000000000000000000000000000700000000000000000005000000000507070707070700000000000000000000000000000000000000070707000000000000
310
00000000000000000000000000000000050707070000000000000000000000000007070707070707070500000000000500000000000000000000000000000700000000000000000000000000000000000000000000000000000000000000000000000000000000000000000000000000000000000000000000000000000000
310
00000007000000000000000000050000000005070000000007000000000000000000000000000000000000000507070000000000000000000000000000000000000000000005070707000000000000000000000000000707070000000007050000000000050000000000000000000000000000070000000000000000000000
310
00000000000000000000000000000000000000000000000000000000000000000000000000000000000000000000000000000000000000000700000000000000000005000000000500000000000000000000000000000000000000000000000000050000000000000000000000000000000000000000000000000500000000
310
00000000000000000000000000000000000000000500070707070707050505050505050505050505050700000000000000000000000000000000000000000000000000000000000000000000000000000000000000000000000000000000000000000000000000000000000000070505050505050505050505050505070707
310
07070707070505050505050505050505050505050505050505050505050505050505050505050505050505050505050505050505050505050505050505050505050507070707070707070707070700000000000000000000000000000000000000000000000000000000000000000000000000000000000000000000000000
310
00000000000000000000000000000000000000000000000000000000000000000000000000000000000000000000000000000507000000000007070707070707070707000000000000000000050000000000000000000000000000000000000000000000000500000000000707070707070707070707070700000000070707
310
07000000000000000000000000000000000000000000000000000000000000000000000000000000000000000000000000000000000000000000000000000000000000000000000000000000000000000000000000000000000000000000000000000000000000000707000000000000000000000000000707070707070707
310
07070507070707070707070707070707070707070707070707070705070707070700000000000000000000000000070707070700000000000000000000000000000000000000000000000000000000000000000000000000000000000000000000000000000000000000000000000000000000000000000000000000000000
310
00000000000000000000000000000000000000000000000000000000000000070700000000000000000000000000000000000000000000050000000000000000000000000000000000000000000000000500000000000000000000000007070707070700000000000000000000000000000000000000000000000000000000
310
00000000000000000000000000000000000000000000000000000000000000000000000000000000000000000000000000000000000000000000000000000000000000000000000000000000000000000000000000070707000000000000000000000000000000000000000005000000000000000000000000000000000000
310
00000000000005000000000000000707070707070000000000000000000000000000000000000000000000000000000000000000000000000000000000000000000000000000000000000000000000000000000000000000000000000000000000000000000000000000000000000000000000000000000000000000000000
310
00000000000000000000000000070707070000000000000000000000000000000000050000000000000000000000000000000000000000000000000507070707070707000000000000000000000000000000000000000000000000000000000000000000000000000000000000000000000000000000000000000000000000
310
00000000000000000000000000000000000000000000000000000000000000000000000000000000000000000000070707070707070707070707070707070707070000000007070707070000000000000000000000000005000000000000000000000000000000000707070707070707050700000000000000000000000000
310
00000000000000000000000000000000000000000000000000000000000000000000000000000000000000000000000000000000000000000000000000000000000000000000000000000000000000000000000000000000000000000000000000000007070707070707070707070707070707070707000000000000000007
310
07070707070707070700000000050007070707070707070707070707070707000000000000000000000000000000000000000000000000000000000000000000000000000000000000000000000000000000000000000000000000000000000000000000000000000000000000000000000000000000000000000000000000
310
00000000000000000000000000000000000000000000000000070707070707070707070707070707070707070000000000000000000000000000000000070707070705070700000000000000000000000000000000000000000000000000000000000000000000000000000000000000000000000000000000000000000000
310
00000000000000000000000000000000000000000000000000000000000000000000000000000000000000000000000000000000000000000000000000000000000000000000000000000000000007070707070707070707070707070707070707070707070707070707070700000000000000000000000000000000000000
310
00000000000000000000000000000000000000000000000000000000000000000000000000000000000000000000000000000000000000000000000000000000000000000000000000000000000000000000000000000000000000000000000000000000000000000000000000000000000000000000000000000000000000
310
00000000070707070707070707070707070707070707070707070707070707070707000000000000000000000000000000000000000000000000000000000000000000000000000000000000000000000000000000000000000000000000000000000000000000000000000000000000000000000000000000000000000000
310
00000000000000000000000000000000000000000000000000000000000000000000000000000000000000000000000000000000000000000007070707070707070707070707070707070707070707070707070707070707070707070707070707070707070707070707070000000000000000000000000000000000000000
310
00000000000000000000000000000000000000000000000000000000000000000000000000000000000000000000000000000000000000000000000000000000000000000000000000000000000000000000000000000000000000000000000000000000000000000000000000000007070707070707070707070707070707
310
07070707070707070707070707070707070707070707070707070707070707070700000000000000000000000000000000000000000000000000000000000000000000000000000000000000000000000000000000000000000000000000000000000000000000000000000000000000000000000000000000000000000000
310
00000000000000000000000000000000000000000000000000000000000000000000000007070007070707070700000000070000000000070007000007070007070700000000070700070700000000000707000007000000000000000000000000000000000000000000000000000000000000000000000000000000000000
310
00000000000000000000000000000000000000000000000000000000000000000000000000000000000000000000000000000000000000000000000000000000000000000000000000000000000000000000000000000000000000000000000000000000000000000000000000000000000000000000000000000000000000
310
000000000000000000000000000000000000000000000000000000000000000000000000000000000000000000000000000000000000000000000000000000000000000000000000000000000000000000000000000000000000000000000000000000000000000000000000
  0
ENDSEC
  0
EOF
