  0
SECTION
  2
HEADER
  9
$ACADVER
  1
AC1018
  9
$ACADMAINTVER
 70
     0
  9
$DWGCODEPAGE
  3
ANSI_1251
  9
$INSBASE
 10
0.0
 20
0.0
 30
0.0
  9
$EXTMIN
 10
-776.3102737932363
 20
-632.0185099764576
 30
0.0
  9
$EXTMAX
 10
-356.3102737932363
 20
-335.0185099764576
 30
0.0
  9
$LIMMIN
 10
-776.3102737932363
 20
-632.0185099764576
  9
$LIMMAX
 10
-356.3102737932363
 20
-335.0185099764576
  9
$ORTHOMODE
 70
     0
  9
$REGENMODE
 70
     1
  9
$FILLMODE
 70
     1
  9
$QTEXTMODE
 70
     0
  9
$MIRRTEXT
 70
     0
  9
$LTSCALE
 40
1.0
  9
$ATTMODE
 70
     1
  9
$TEXTSIZE
 40
12.69999980926514
  9
$TRACEWID
 40
1.0
  9
$TEXTSTYLE
  7
STANDARD
  9
$CLAYER
  8
0
  9
$CELTYPE
  6
ByLayer
  9
$CECOLOR
 62
     7
  9
$CELTSCALE
 40
1.0
  9
$DISPSILH
 70
     0
  9
$DIMSCALE
 40
1.0
  9
$DIMASZ
 40
5.0
  9
$DIMEXO
 40
0.0625
  9
$DIMDLI
 40
0.375
  9
$DIMRND
 40
0.01
  9
$DIMDLE
 40
0.0
  9
$DIMEXE
 40
0.125
  9
$DIMTP
 40
0.0
  9
$DIMTM
 40
0.0
  9
$DIMTXT
 40
3.0
  9
$DIMCEN
 40
0.09
  9
$DIMTSZ
 40
0.0
  9
$DIMTOL
 70
     0
  9
$DIMLIM
 70
     0
  9
$DIMTIH
 70
     1
  9
$DIMTOH
 70
     1
  9
$DIMSE1
 70
     0
  9
$DIMSE2
 70
     0
  9
$DIMTAD
 70
     1
  9
$DIMZIN
 70
     3
  9
$DIMBLK
  1

  9
$DIMASO
 70
     1
  9
$DIMSHO
 70
     1
  9
$DIMPOST
  1
mm
  9
$DIMAPOST
  1

  9
$DIMALT
 70
     0
  9
$DIMALTD
 70
     2
  9
$DIMALTF
 40
1.0
  9
$DIMLFAC
 40
1.0
  9
$DIMTOFL
 70
     1
  9
$DIMTVP
 40
0.0
  9
$DIMTIX
 70
     0
  9
$DIMSOXD
 70
     0
  9
$DIMSAH
 70
     0
  9
$DIMBLK1
  1

  9
$DIMBLK2
  1

  9
$DIMSTYLE
  2
Standard
  9
$DIMCLRD
 70
     7
  9
$DIMCLRE
 70
     7
  9
$DIMCLRT
 70
     7
  9
$DIMTFAC
 40
1.0
  9
$DIMGAP
 40
0.0625
  9
$DIMJUST
 70
     0
  9
$DIMSD1
 70
     0
  9
$DIMSD2
 70
     0
  9
$DIMTOLJ
 70
     1
  9
$DIMTZIN
 70
     0
  9
$DIMALTZ
 70
     3
  9
$DIMALTTZ
 70
     0
  9
$DIMUPT
 70
     0
  9
$DIMDEC
 70
     2
  9
$DIMTDEC
 70
     4
  9
$DIMALTU
 70
     2
  9
$DIMALTTD
 70
     2
  9
$DIMTXSTY
  7
_TCW_TXTSTY_1
  9
$DIMAUNIT
 70
     0
  9
$DIMADEC
 70
     2
  9
$DIMALTRND
 40
0.01
  9
$DIMAZIN
 70
     0
  9
$DIMDSEP
 70
    46
  9
$DIMATFIT
 70
     3
  9
$DIMFRAC
 70
     0
  9
$DIMLDRBLK
  1

  9
$DIMLUNIT
 70
     2
  9
$DIMLWD
 70
    -2
  9
$DIMLWE
 70
    -2
  9
$DIMTMOVE
 70
     0
  9
$LUNITS
 70
     2
  9
$LUPREC
 70
     2
  9
$SKETCHINC
 40
1.0
  9
$FILLETRAD
 40
1.0
  9
$AUNITS
 70
     0
  9
$AUPREC
 70
     2
  9
$MENU
  1
.
  9
$ELEVATION
 40
0.0
  9
$PELEVATION
 40
0.0
  9
$THICKNESS
 40
0.0
  9
$LIMCHECK
 70
     0
  9
$CHAMFERA
 40
0.5
  9
$CHAMFERB
 40
0.5
  9
$CHAMFERC
 40
1.0
  9
$CHAMFERD
 40
0.0
  9
$SKPOLY
 70
     0
  9
$TDCREATE
 40
2454518.595988137
  9
$TDUCREATE
 40
2454518.55432147
  9
$TDUPDATE
 40
2454518.595988148
  9
$TDUUPDATE
 40
2454518.554321481
  9
$TDINDWG
 40
0.0
  9
$TDUSRTIMER
 40
0.0
  9
$USRTIMER
 70
     1
  9
$ANGBASE
 50
0.0
  9
$ANGDIR
 70
     0
  9
$PDMODE
 70
     0
  9
$PDSIZE
 40
0.0
  9
$PLINEWID
 40
0.0
  9
$SPLFRAME
 70
     0
  9
$SPLINETYPE
 70
     6
  9
$SPLINESEGS
 70
    20
  9
$HANDSEED
  5
D1
  9
$SURFTAB1
 70
     6
  9
$SURFTAB2
 70
     6
  9
$SURFTYPE
 70
     6
  9
$SURFU
 70
     6
  9
$SURFV
 70
     6
  9
$UCSBASE
  2

  9
$UCSNAME
  2

  9
$UCSORG
 10
0.0
 20
0.0
 30
0.0
  9
$UCSXDIR
 10
1.0
 20
0.0
 30
0.0
  9
$UCSYDIR
 10
0.0
 20
1.0
 30
0.0
  9
$UCSORTHOREF
  2

  9
$UCSORTHOVIEW
 70
     0
  9
$UCSORGTOP
 10
0.0
 20
0.0
 30
0.0
  9
$UCSORGBOTTOM
 10
0.0
 20
0.0
 30
0.0
  9
$UCSORGLEFT
 10
0.0
 20
0.0
 30
0.0
  9
$UCSORGRIGHT
 10
0.0
 20
0.0
 30
0.0
  9
$UCSORGFRONT
 10
0.0
 20
0.0
 30
0.0
  9
$UCSORGBACK
 10
0.0
 20
0.0
 30
0.0
  9
$PUCSBASE
  2

  9
$PUCSNAME
  2

  9
$PUCSORG
 10
0.0
 20
0.0
 30
0.0
  9
$PUCSXDIR
 10
1.0
 20
0.0
 30
0.0
  9
$PUCSYDIR
 10
0.0
 20
1.0
 30
0.0
  9
$PUCSORTHOREF
  2

  9
$PUCSORTHOVIEW
 70
     0
  9
$PUCSORGTOP
 10
0.0
 20
0.0
 30
0.0
  9
$PUCSORGBOTTOM
 10
0.0
 20
0.0
 30
0.0
  9
$PUCSORGLEFT
 10
0.0
 20
0.0
 30
0.0
  9
$PUCSORGRIGHT
 10
0.0
 20
0.0
 30
0.0
  9
$PUCSORGFRONT
 10
0.0
 20
0.0
 30
0.0
  9
$PUCSORGBACK
 10
0.0
 20
0.0
 30
0.0
  9
$USERI1
 70
     0
  9
$USERI2
 70
     0
  9
$USERI3
 70
     0
  9
$USERI4
 70
     0
  9
$USERI5
 70
     0
  9
$USERR1
 40
0.0
  9
$USERR2
 40
0.0
  9
$USERR3
 40
0.0
  9
$USERR4
 40
0.0
  9
$USERR5
 40
0.0
  9
$WORLDVIEW
 70
     1
  9
$SHADEDGE
 70
     3
  9
$SHADEDIF
 70
    70
  9
$TILEMODE
 70
     1
  9
$MAXACTVP
 70
    64
  9
$PINSBASE
 10
0.0
 20
0.0
 30
0.0
  9
$PLIMCHECK
 70
     0
  9
$PEXTMIN
 10
0.0
 20
0.0
 30
0.0
  9
$PEXTMAX
 10
297.0
 20
210.0
 30
0.0
  9
$PLIMMIN
 10
0.0
 20
0.0
  9
$PLIMMAX
 10
297.0
 20
210.0
  9
$UNITMODE
 70
     0
  9
$VISRETAIN
 70
     1
  9
$PLINEGEN
 70
     0
  9
$PSLTSCALE
 70
     1
  9
$TREEDEPTH
 70
  3020
  9
$CMLSTYLE
  2
Standard
  9
$CMLJUST
 70
     0
  9
$CMLSCALE
 40
1.0
  9
$PROXYGRAPHICS
 70
     1
  9
$MEASUREMENT
 70
     0
  9
$CELWEIGHT
370
    -1
  9
$ENDCAPS
280
     0
  9
$JOINSTYLE
280
     0
  9
$LWDISPLAY
290
     0
  9
$INSUNITS
 70
     1
  9
$HYPERLINKBASE
  1

  9
$STYLESHEET
  1

  9
$XEDIT
290
     1
  9
$CEPSNTYPE
380
     0
  9
$PSTYLEMODE
290
     1
  9
$FINGERPRINTGUID
  2
{D348FFEC-429D-40DB-ABD2-8F5E5CAEE74E}
  9
$VERSIONGUID
  2
{FAEB1C32-E019-11D5-929B-00C0DF256EC4}
  9
$EXTNAMES
290
     1
  9
$PSVPSCALE
 40
0.0
  9
$OLESTARTUP
290
     0
  9
$SORTENTS
280
   127
  9
$INDEXCTL
280
     0
  9
$HIDETEXT
280
     1
  9
$XCLIPFRAME
290
     0
  9
$HALOGAP
280
     0
  9
$OBSCOLOR
 70
   257
  9
$OBSLTYPE
280
     0
  9
$INTERSECTIONDISPLAY
280
     0
  9
$INTERSECTIONCOLOR
 70
   257
  9
$DIMASSOC
280
     2
  9
$PROJECTNAME
  1

  0
ENDSEC
  0
SECTION
  2
CLASSES
  0
CLASS
  1
ACDBDICTIONARYWDFLT
  2
AcDbDictionaryWithDefault
  3
ObjectDBX Classes
 90
        0
 91
        3
280
     0
281
     0
  0
CLASS
  1
TCPOINTENTITY
  2
TcPointEntity
  3
ExTcadCustObjs|Description: TurboCAD point
 90
     1023
 91
        3
280
     0
281
     1
  0
ENDSEC
  0
SECTION
  2
TABLES
  0
TABLE
  2
VPORT
  5
8
330
0
100
AcDbSymbolTable
 70
     1
  0
VPORT
  5
29
330
8
100
AcDbSymbolTableRecord
100
AcDbViewportTableRecord
  2
*Active
 70
     0
 10
0.0
 20
0.0
 11
1.0
 21
1.0
 12
0.0
 22
0.0
 13
0.0
 23
0.0
 14
5.0
 24
5.0
 15
5.0
 25
5.0
 16
0.0
 26
0.0
 36
1.0
 17
-573.4495595287599
 27
-483.5185099764576
 37
0.0
 40
286.3285714285715
 41
1.519083969465649
 42
50.0
 43
0.0
 44
0.0
 50
0.0
 51
0.0
 71
     0
 72
   100
 73
     1
 74
     3
 75
     0
 76
     1
 77
     0
 78
     0
281
     0
 65
     1
110
0.0
120
0.0
130
0.0
111
1.0
121
0.0
131
0.0
112
0.0
122
1.0
132
0.0
 79
     0
146
0.0
  0
ENDTAB
  0
TABLE
  2
LTYPE
  5
5
330
0
100
AcDbSymbolTable
 70
    13
  0
LTYPE
  5
14
330
5
100
AcDbSymbolTableRecord
100
AcDbLinetypeTableRecord
  2
ByBlock
 70
     0
  3

 72
    65
 73
     0
 40
0.0
  0
LTYPE
  5
15
330
5
100
AcDbSymbolTableRecord
100
AcDbLinetypeTableRecord
  2
ByLayer
 70
     0
  3

 72
    65
 73
     0
 40
0.0
  0
LTYPE
  5
16
330
5
100
AcDbSymbolTableRecord
100
AcDbLinetypeTableRecord
  2
Continuous
 70
     0
  3
Solid line
 72
    65
 73
     0
 40
0.0
  0
LTYPE
  5
2B
330
5
100
AcDbSymbolTableRecord
100
AcDbLinetypeTableRecord
  2
BORDER
 70
     0
  3
BORDER
 72
    65
 73
     6
 40
1.75
 49
0.5
 74
     0
 49
-0.25
 74
     0
 49
0.5
 74
     0
 49
-0.25
 74
     0
 49
0.0
 74
     0
 49
-0.25
 74
     0
  0
LTYPE
  5
2C
330
5
100
AcDbSymbolTableRecord
100
AcDbLinetypeTableRecord
  2
CENTER
 70
     0
  3
CENTER
 72
    65
 73
     4
 40
2.0
 49
1.25
 74
     0
 49
-0.25
 74
     0
 49
0.25
 74
     0
 49
-0.25
 74
     0
  0
LTYPE
  5
2D
330
5
100
AcDbSymbolTableRecord
100
AcDbLinetypeTableRecord
  2
DASHDOT
 70
     0
  3
DASHDOT
 72
    65
 73
     4
 40
1.0
 49
0.5
 74
     0
 49
-0.25
 74
     0
 49
0.0
 74
     0
 49
-0.25
 74
     0
  0
LTYPE
  5
2E
330
5
100
AcDbSymbolTableRecord
100
AcDbLinetypeTableRecord
  2
DASHED
 70
     0
  3
DASHED
 72
    65
 73
     2
 40
0.75
 49
0.5
 74
     0
 49
-0.25
 74
     0
  0
LTYPE
  5
2F
330
5
100
AcDbSymbolTableRecord
100
AcDbLinetypeTableRecord
  2
DIVIDE
 70
     0
  3
DIVIDE
 72
    65
 73
     6
 40
1.25
 49
0.5
 74
     0
 49
-0.25
 74
     0
 49
0.0
 74
     0
 49
-0.25
 74
     0
 49
0.0
 74
     0
 49
-0.25
 74
     0
  0
LTYPE
  5
30
330
5
100
AcDbSymbolTableRecord
100
AcDbLinetypeTableRecord
  2
DOT
 70
     0
  3
DOT
 72
    65
 73
     2
 40
0.25
 49
0.0
 74
     0
 49
-0.25
 74
     0
  0
LTYPE
  5
31
330
5
100
AcDbSymbolTableRecord
100
AcDbLinetypeTableRecord
  2
HIDDEN
 70
     0
  3
HIDDEN
 72
    65
 73
     2
 40
0.375
 49
0.25
 74
     0
 49
-0.125
 74
     0
  0
LTYPE
  5
32
330
5
100
AcDbSymbolTableRecord
100
AcDbLinetypeTableRecord
  2
PHANTOM
 70
     0
  3
PHANTOM
 72
    65
 73
     6
 40
2.5
 49
1.25
 74
     0
 49
-0.25
 74
     0
 49
0.25
 74
     0
 49
-0.25
 74
     0
 49
0.25
 74
     0
 49
-0.25
 74
     0
  0
LTYPE
  5
33
330
5
100
AcDbSymbolTableRecord
100
AcDbLinetypeTableRecord
  2
$INVISIBLE
 70
     0
  3
$INVISIBLE
 72
    65
 73
     2
 40
200.0
 49
-100.0
 74
     0
 49
-100.0
 74
     0
  0
LTYPE
  5
34
330
5
100
AcDbSymbolTableRecord
100
AcDbLinetypeTableRecord
  2
$AUXILIARY
 70
     0
  3
$AUXILIARY
 72
    65
 73
     2
 40
0.1000000014901161
 49
0.0500000007450581
 74
     0
 49
-0.0500000007450581
 74
     0
  0
LTYPE
  5
35
330
5
100
AcDbSymbolTableRecord
100
AcDbLinetypeTableRecord
  2
$CONSTRUCTION
 70
     0
  3
$CONSTRUCTION
 72
    65
 73
     4
 40
0.3
 49
0.2
 74
     0
 49
-0.05
 74
     0
 49
0.0
 74
     0
 49
-0.05
 74
     0
  0
LTYPE
  5
36
330
5
100
AcDbSymbolTableRecord
100
AcDbLinetypeTableRecord
  2
$SNAPEXT
 70
     0
  3
$SNAPEXT
 72
    65
 73
     2
 40
0.04
 49
0.02
 74
     0
 49
-0.02
 74
     0
  0
ENDTAB
  0
TABLE
  2
LAYER
  5
2
330
0
100
AcDbSymbolTable
 70
     1
  0
LAYER
  5
10
330
2
100
AcDbSymbolTableRecord
100
AcDbLayerTableRecord
  2
0
 70
     0
 62
     7
  6
Continuous
370
     0
390
F
1001
TCAD
1000
TCW_LAYER_ORDER
1002
{
1071
        0
1002
}
  0
ENDTAB
  0
TABLE
  2
STYLE
  5
3
330
0
100
AcDbSymbolTable
 70
    25
  0
STYLE
  5
11
330
3
100
AcDbSymbolTableRecord
100
AcDbTextStyleTableRecord
  2
STANDARD
 70
     0
 40
0.0
 41
1.0
 50
0.0
 71
     0
 42
7.619999885559082
  3
txt
  4

1001
ACAD
1000
Times New Roman
1071
      290
  0
STYLE
  5
38
330
3
100
AcDbSymbolTableRecord
100
AcDbTextStyleTableRecord
  2
_TCW_TXTSTY_1
 70
     0
 40
0.0
 41
1.0
 50
0.0
 71
     0
 42
0.6000000238418579
  3
TIMES.TTF
  4

1001
ACAD
1000
Times New Roman
1071
      290
  0
STYLE
  5
83
330
3
100
AcDbSymbolTableRecord
100
AcDbTextStyleTableRecord
  2
_TCW_TXTSTY_2
 70
     0
 40
0.0
 41
1.0
 50
0.0
 71
     0
 42
5.776946067810059
  3
TIMES.TTF
  4

1001
ACAD
1000
Times New Roman
1071
      290
  0
STYLE
  5
85
330
3
100
AcDbSymbolTableRecord
100
AcDbTextStyleTableRecord
  2
_TCW_TXTSTY_3
 70
     0
 40
0.0
 41
1.0
 50
0.0
 71
     0
 42
3.522528171539307
  3
TIMES.TTF
  4

1001
ACAD
1000
Times New Roman
1071
      290
  0
STYLE
  5
94
330
3
100
AcDbSymbolTableRecord
100
AcDbTextStyleTableRecord
  2
_TCW_TXTSTY_4
 70
     0
 40
0.0
 41
1.0
 50
0.0
 71
     0
 42
5.081785678863525
  3
TIMES.TTF
  4

1001
ACAD
1000
Times New Roman
1071
      290
  0
STYLE
  5
96
330
3
100
AcDbSymbolTableRecord
100
AcDbTextStyleTableRecord
  2
_TCW_TXTSTY_5
 70
     0
 40
0.0
 41
1.0
 50
0.0
 71
     0
 42
5.081785678863525
  3
TIMES.TTF
  4

1001
ACAD
1000
Times New Roman
1071
      290
  0
STYLE
  5
98
330
3
100
AcDbSymbolTableRecord
100
AcDbTextStyleTableRecord
  2
_TCW_TXTSTY_6
 70
     0
 40
0.0
 41
1.0
 50
0.0
 71
     0
 42
5.081785678863525
  3
TIMES.TTF
  4

1001
ACAD
1000
Times New Roman
1071
      290
  0
STYLE
  5
9A
330
3
100
AcDbSymbolTableRecord
100
AcDbTextStyleTableRecord
  2
_TCW_TXTSTY_7
 70
     0
 40
0.0
 41
1.0
 50
0.0
 71
     0
 42
5.081785678863525
  3
TIMES.TTF
  4

1001
ACAD
1000
Times New Roman
1071
      290
  0
STYLE
  5
9C
330
3
100
AcDbSymbolTableRecord
100
AcDbTextStyleTableRecord
  2
_TCW_TXTSTY_8
 70
     0
 40
0.0
 41
1.0
 50
0.0
 71
     0
 42
5.081785678863525
  3
TIMES.TTF
  4

1001
ACAD
1000
Times New Roman
1071
      290
  0
STYLE
  5
9E
330
3
100
AcDbSymbolTableRecord
100
AcDbTextStyleTableRecord
  2
_TCW_TXTSTY_9
 70
     0
 40
0.0
 41
1.0
 50
0.0
 71
     0
 42
5.081785678863525
  3
TIMES.TTF
  4

1001
ACAD
1000
Times New Roman
1071
      290
  0
STYLE
  5
A9
330
3
100
AcDbSymbolTableRecord
100
AcDbTextStyleTableRecord
  2
_TCW_TXTSTY_A
 70
     0
 40
0.0
 41
1.0
 50
0.0
 71
     0
 42
5.081785678863525
  3
TIMES.TTF
  4

1001
ACAD
1000
Times New Roman
1071
      290
  0
STYLE
  5
AB
330
3
100
AcDbSymbolTableRecord
100
AcDbTextStyleTableRecord
  2
_TCW_TXTSTY_B
 70
     0
 40
0.0
 41
1.0
 50
0.0
 71
     0
 42
5.081785678863525
  3
TIMES.TTF
  4

1001
ACAD
1000
Times New Roman
1071
      290
  0
STYLE
  5
AD
330
3
100
AcDbSymbolTableRecord
100
AcDbTextStyleTableRecord
  2
_TCW_TXTSTY_C
 70
     0
 40
0.0
 41
1.0
 50
0.0
 71
     0
 42
5.081785678863525
  3
TIMES.TTF
  4

1001
ACAD
1000
Times New Roman
1071
      290
  0
STYLE
  5
AF
330
3
100
AcDbSymbolTableRecord
100
AcDbTextStyleTableRecord
  2
_TCW_TXTSTY_D
 70
     0
 40
0.0
 41
1.0
 50
0.0
 71
     0
 42
5.081785678863525
  3
TIMES.TTF
  4

1001
ACAD
1000
Times New Roman
1071
      290
  0
STYLE
  5
B1
330
3
100
AcDbSymbolTableRecord
100
AcDbTextStyleTableRecord
  2
_TCW_TXTSTY_E
 70
     0
 40
0.0
 41
1.0
 50
0.0
 71
     0
 42
5.081785678863525
  3
TIMES.TTF
  4

1001
ACAD
1000
Times New Roman
1071
      290
  0
STYLE
  5
B3
330
3
100
AcDbSymbolTableRecord
100
AcDbTextStyleTableRecord
  2
_TCW_TXTSTY_F
 70
     0
 40
0.0
 41
1.0
 50
0.0
 71
     0
 42
5.081785678863525
  3
TIMES.TTF
  4

1001
ACAD
1000
Times New Roman
1071
      290
  0
STYLE
  5
B5
330
3
100
AcDbSymbolTableRecord
100
AcDbTextStyleTableRecord
  2
_TCW_TXTSTY_10
 70
     0
 40
0.0
 41
1.0
 50
0.0
 71
     0
 42
5.081785678863525
  3
TIMES.TTF
  4

1001
ACAD
1000
Times New Roman
1071
      290
  0
STYLE
  5
C0
330
3
100
AcDbSymbolTableRecord
100
AcDbTextStyleTableRecord
  2
_TCW_TXTSTY_11
 70
     0
 40
0.0
 41
1.0
 50
0.0
 71
     0
 42
5.081785678863525
  3
TIMES.TTF
  4

1001
ACAD
1000
Times New Roman
1071
      290
  0
STYLE
  5
C2
330
3
100
AcDbSymbolTableRecord
100
AcDbTextStyleTableRecord
  2
_TCW_TXTSTY_12
 70
     0
 40
0.0
 41
1.0
 50
0.0
 71
     0
 42
5.081785678863525
  3
TIMES.TTF
  4

1001
ACAD
1000
Times New Roman
1071
      290
  0
STYLE
  5
C4
330
3
100
AcDbSymbolTableRecord
100
AcDbTextStyleTableRecord
  2
_TCW_TXTSTY_13
 70
     0
 40
0.0
 41
1.0
 50
0.0
 71
     0
 42
5.081785678863525
  3
TIMES.TTF
  4

1001
ACAD
1000
Times New Roman
1071
      290
  0
STYLE
  5
C6
330
3
100
AcDbSymbolTableRecord
100
AcDbTextStyleTableRecord
  2
_TCW_TXTSTY_14
 70
     0
 40
0.0
 41
1.0
 50
0.0
 71
     0
 42
5.081785678863525
  3
TIMES.TTF
  4

1001
ACAD
1000
Times New Roman
1071
      290
  0
STYLE
  5
C8
330
3
100
AcDbSymbolTableRecord
100
AcDbTextStyleTableRecord
  2
_TCW_TXTSTY_15
 70
     0
 40
0.0
 41
1.0
 50
0.0
 71
     0
 42
5.081785678863525
  3
TIMES.TTF
  4

1001
ACAD
1000
Times New Roman
1071
      290
  0
STYLE
  5
CA
330
3
100
AcDbSymbolTableRecord
100
AcDbTextStyleTableRecord
  2
_TCW_TXTSTY_16
 70
     0
 40
0.0
 41
1.0
 50
0.0
 71
     0
 42
5.081785678863525
  3
TIMES.TTF
  4

1001
ACAD
1000
Times New Roman
1071
      290
  0
STYLE
  5
CC
330
3
100
AcDbSymbolTableRecord
100
AcDbTextStyleTableRecord
  2
_TCW_TXTSTY_17
 70
     0
 40
0.0
 41
1.0
 50
0.0
 71
     0
 42
5.081785678863525
  3
TIMES.TTF
  4

1001
ACAD
1000
Times New Roman
1071
      290
  0
STYLE
  5
CE
330
3
100
AcDbSymbolTableRecord
100
AcDbTextStyleTableRecord
  2
_TCW_TXTSTY_18
 70
     0
 40
0.0
 41
1.0
 50
0.0
 71
     0
 42
3.522528171539307
  3
TIMES.TTF
  4

1001
ACAD
1000
Times New Roman
1071
      290
  0
ENDTAB
  0
TABLE
  2
VIEW
  5
6
330
0
100
AcDbSymbolTable
 70
     1
  0
VIEW
  5
37
330
6
100
AcDbSymbolTableRecord
100
AcDbViewTableRecord
  2
View_0
 70
     0
 40
210.0
 10
148.5
 20
105.0
 41
297.0
 11
0.0
 21
0.0
 31
1.0
 12
0.0
 22
0.0
 32
0.0
 42
50.0
 43
0.0
 44
0.0
 50
0.0
 71
     0
281
     0
 72
     0
  0
ENDTAB
  0
TABLE
  2
UCS
  5
7
330
0
100
AcDbSymbolTable
 70
     0
  0
ENDTAB
  0
TABLE
  2
APPID
  5
9
330
0
100
AcDbSymbolTable
 70
     2
  0
APPID
  5
12
330
9
100
AcDbSymbolTableRecord
100
AcDbRegAppTableRecord
  2
ACAD
 70
     0
  0
APPID
  5
2A
330
9
100
AcDbSymbolTableRecord
100
AcDbRegAppTableRecord
  2
TCAD
 70
     0
  0
ENDTAB
  0
TABLE
  2
DIMSTYLE
  5
A
330
0
100
AcDbSymbolTable
 70
     1
100
AcDbDimStyleTable
  0
DIMSTYLE
105
27
330
A
100
AcDbSymbolTableRecord
100
AcDbDimStyleTableRecord
  2
Standard
 70
     0
  3
mm
 41
5.0
 43
0.375
 44
0.125
 45
0.01
 77
     1
 78
     3
140
3.0
143
1.0
147
0.0625
148
0.01
172
     1
176
     7
177
     7
178
     7
179
     2
271
     2
285
     3
340
38
  0
ENDTAB
  0
TABLE
  2
BLOCK_RECORD
  5
1
330
0
100
AcDbSymbolTable
 70
     3
  0
BLOCK_RECORD
  5
1F
330
1
100
AcDbSymbolTableRecord
100
AcDbBlockTableRecord
  2
*Model_Space
340
22
  0
BLOCK_RECORD
  5
1B
330
1
100
AcDbSymbolTableRecord
100
AcDbBlockTableRecord
  2
*Paper_Space
340
1E
  0
BLOCK_RECORD
  5
41
330
1
100
AcDbSymbolTableRecord
100
AcDbBlockTableRecord
  2
*E1
340
0
102
{BLKREFS
331
45
102
}
  0
BLOCK_RECORD
  5
66
330
1
100
AcDbSymbolTableRecord
100
AcDbBlockTableRecord
  2
*E2
340
0
102
{BLKREFS
331
6A
102
}
  0
ENDTAB
  0
ENDSEC
  0
SECTION
  2
BLOCKS
  0
BLOCK
  5
20
330
1F
100
AcDbEntity
  8
0
100
AcDbBlockBegin
  2
*Model_Space
 70
     0
 71
     0
 10
0.0
 20
0.0
 30
0.0
  3
*Model_Space
  1

  0
ENDBLK
  5
21
330
1F
100
AcDbEntity
  8
0
100
AcDbBlockEnd
  0
BLOCK
  5
1C
330
1B
100
AcDbEntity
 67
     1
  8
0
100
AcDbBlockBegin
  2
*Paper_Space
 70
     0
 71
     0
 10
0.0
 20
0.0
 30
0.0
  3
*Paper_Space
  1

  0
ENDBLK
  5
1D
330
1B
100
AcDbEntity
 67
     1
  8
0
100
AcDbBlockEnd
  0
BLOCK
  5
43
330
41
100
AcDbEntity
  8
0
100
AcDbBlockBegin
  2
*E1
 70
     1
 71
     0
 10
0.0
 20
0.0
 30
0.0
  3
*E1
  1

  0
LWPOLYLINE
  5
42
330
41
100
AcDbEntity
  8
0
  6
Continuous
 62
     7
370
     0
100
AcDbPolyline
 90
     1181
 70
   128
 43
0.0
 10
-743.2793176004456
 20
-515.9559095055116
 10
-743.2073626884503
 20
-516.0358985787974
 10
-743.1353577713857
 20
-516.1158428947556
 10
-743.0633028915172
 20
-516.1957424069568
 10
-742.9911980911118
 20
-516.2755970689724
 10
-742.9190434124346
 20
-516.3554068343728
 10
-742.846838897752
 20
-516.4351716567297
 10
-742.7745845893305
 20
-516.5148914896139
 10
-742.7022805294357
 20
-516.5945662865962
 10
-742.6299267603335
 20
-516.6741960012477
 10
-742.5575233242902
 20
-516.7537805871392
 10
-742.485070263572
 20
-516.8333199978423
 10
-742.4125676204445
 20
-516.9128141869276
 10
-742.3400154371741
 20
-516.9922631079658
 10
-742.2674137560267
 20
-517.0716667145283
 10
-742.1947626192685
 20
-517.1510249601862
 10
-742.1220620691653
 20
-517.23033779851
 10
-742.0493121479835
 20
-517.3096051830713
 10
-741.9765128979886
 20
-517.3888270674406
 10
-741.9036643614471
 20
-517.4680034051892
 10
-741.8307665806251
 20
-517.5471341498879
 10
-741.7781828246365
 20
-517.6041432221346
 10
-741.7255622758532
 20
-517.6611191000294
 10
-741.6729027544463
 20
-517.7180595771682
 10
-741.6202020805878
 20
-517.7749624471473
 10
-741.5674580744485
 20
-517.8318255035622
 10
-741.5146685562005
 20
-517.8886465400091
 10
-741.4618313460155
 20
-517.9454233500842
 10
-741.4089442640646
 20
-518.0021537273831
 10
-741.3560051305192
 20
-518.0588354655017
 10
-741.3030117655509
 20
-518.1154663580361
 10
-741.2499619893316
 20
-518.1720441985825
 10
-741.1968536220326
 20
-518.2285667807366
 10
-741.1436844838252
 20
-518.2850318980943
 10
-741.0904523948808
 20
-518.3414373442515
 10
-741.0371551753715
 20
-518.3977809128046
 10
-740.9837906454683
 20
-518.4540603973489
 10
-740.9303566253429
 20
-518.510273591481
 10
-740.8768509351669
 20
-518.5664182887964
 10
-740.8232713951115
 20
-518.6224922828912
 10
-740.7696158253486
 20
-518.6784933673615
 10
-740.6358798857641
 20
-518.8179463393168
 10
-740.5021930568979
 20
-518.957449668477
 10
-740.3685355200083
 20
-519.0969837196473
 10
-740.2348874563543
 20
-519.2365288576333
 10
-740.1012290471929
 20
-519.3760654472402
 10
-739.9675404737833
 20
-519.5155738532735
 10
-739.8338019173843
 20
-519.655034440539
 10
-739.6999935592535
 20
-519.7944275738416
 10
-739.5660955806493
 20
-519.933733617987
 10
-739.4320881628298
 20
-520.0729329377801
 10
-739.2979514870543
 20
-520.2120058980272
 10
-739.1636657345805
 20
-520.3509328635331
 10
-739.0292110866665
 20
-520.4896941991033
 10
-738.8945677245708
 20
-520.6282702695432
 10
-738.7597158295523
 20
-520.7666414396584
 10
-738.6246355828686
 20
-520.9047880742542
 10
-738.4893071657784
 20
-521.042690538136
 10
-738.3537107595399
 20
-521.180329196109
 10
-738.2178265454116
 20
-521.317684412979
 10
-738.0816347046518
 20
-521.4547365535512
 10
-737.9152009927103
 20
-521.6221280508744
 10
-737.7489944336725
 20
-521.7897811667162
 10
-737.582940912632
 20
-521.9576154432875
 10
-737.4169663146839
 20
-522.1255504228001
 10
-737.2509965249216
 20
-522.2935056474647
 10
-737.0849574284397
 20
-522.4614006594927
 10
-736.918774910333
 20
-522.6291550010958
 10
-736.7523748556952
 20
-522.7966882144848
 10
-736.5856831496205
 20
-522.963919841871
 10
-736.4186256772034
 20
-523.1307694254656
 10
-736.2511283235386
 20
-523.2971565074804
 10
-736.0831169737197
 20
-523.4630006301261
 10
-735.9145175128413
 20
-523.6282213356141
 10
-735.7452558259973
 20
-523.7927381661556
 10
-735.5752577982827
 20
-523.956470663962
 10
-735.404449314791
 20
-524.1193383712443
 10
-735.2327562606172
 20
-524.2812608302144
 10
-735.0601045208549
 20
-524.4421575830827
 10
-734.8864199805989
 20
-524.601948172061
 10
-734.7116285249433
 20
-524.7605521393605
 10
-734.5138758842381
 20
-524.9376443157547
 10
-734.315127523025
 20
-525.1136023382113
 10
-734.1154432105999
 20
-525.2884926516394
 10
-733.9148827162602
 20
-525.4623817009492
 10
-733.7135058093013
 20
-525.6353359310498
 10
-733.5113722590205
 20
-525.8074217868509
 10
-733.3085418347146
 20
-525.9787057132626
 10
-733.1050743056796
 20
-526.1492541551941
 10
-732.9010294412121
 20
-526.3191335575548
 10
-732.6964670106086
 20
-526.4884103652546
 10
-732.4914467831661
 20
-526.6571510232034
 10
-732.2860285281809
 20
-526.8254219763104
 10
-732.0802720149492
 20
-526.9932896694852
 10
-731.8742370127678
 20
-527.1608205476375
 10
-731.6679832909335
 20
-527.3280810556771
 10
-731.4615706187425
 20
-527.4951376385134
 10
-731.2550587654916
 20
-527.6620567410562
 10
-731.048507500477
 20
-527.8289048082147
 10
-730.8419765929956
 20
-527.995748284899
 10
-730.6355258123438
 20
-528.1626536160185
 10
-730.4469021295131
 20
-528.3148456363546
 10
-730.2579092045029
 20
-528.4665765098158
 10
-730.0685674665531
 20
-528.6178713593107
 10
-729.8788973449043
 20
-528.7687553077482
 10
-729.6889192687956
 20
-528.9192534780361
 10
-729.498653667468
 20
-529.0693909930837
 10
-729.3081209701616
 20
-529.2191929757997
 10
-729.1173416061164
 20
-529.3686845490924
 10
-728.926336004572
 20
-529.5178908358704
 10
-728.7351245947689
 20
-529.6668369590424
 10
-728.5437278059476
 20
-529.8155480415172
 10
-728.3521660673479
 20
-529.9640492062033
 10
-728.1604598082097
 20
-530.1123655760092
 10
-727.9686294577733
 20
-530.2605222738435
 10
-727.7766954452791
 20
-530.4085444226151
 10
-727.5846781999667
 20
-530.5564571452323
 10
-727.3925981510768
 20
-530.7042855646041
 10
-727.2004757278489
 20
-530.8520548036388
 10
-727.0083313595236
 20
-530.9997899852451
 10
-726.8161854753408
 20
-531.1475162323317
 10
-726.6679786182954
 20
-531.261211838991
 10
-726.5195398634174
 20
-531.3746024145305
 10
-726.3708896801036
 20
-531.4877149015512
 10
-726.2220485377516
 20
-531.6005762426556
 10
-726.073036905758
 20
-531.7132133804452
 10
-725.9238752535209
 20
-531.8256532575218
 10
-725.7745840504373
 20
-531.9379228164878
 10
-725.6251837659038
 20
-532.0500489999447
 10
-725.4756948693181
 20
-532.1620587504942
 10
-725.3261378300771
 20
-532.2739790107386
 10
-725.1765331175786
 20
-532.3858367232797
 10
-725.0269012012193
 20
-532.497658830719
 10
-724.8772625503965
 20
-532.6094722756588
 10
-724.7276376345076
 20
-532.7213040007007
 10
-724.5780469229497
 20
-532.8331809484469
 10
-724.4285108851199
 20
-532.9451300614987
 10
-724.2790499904157
 20
-533.0571782824587
 10
-724.129684708234
 20
-533.1693525539281
 10
-723.9804355079723
 20
-533.2816798185092
 10
-723.8313228590276
 20
-533.3941870188039
 10
-723.5832703007472
 20
-533.5817912830051
 10
-723.3353802292296
 20
-533.7696115142343
 10
-723.0876276052661
 20
-533.9576144061082
 10
-722.8399873896498
 20
-534.1457666522448
 10
-722.5924345431716
 20
-534.3340349462607
 10
-722.3449440266244
 20
-534.522385981774
 10
-722.0974908008004
 20
-534.7107864524021
 10
-721.8500498264912
 20
-534.8992030517621
 10
-721.602596064489
 20
-535.0876024734714
 10
-721.3551044755859
 20
-535.2759514111473
 10
-721.1075500205745
 20
-535.4642165584078
 10
-720.8599076602463
 20
-535.6523646088696
 10
-720.6121523553935
 20
-535.8403622561503
 10
-720.364259066808
 20
-536.0281761938675
 10
-720.1162027552825
 20
-536.2157731156384
 10
-719.8679583816086
 20
-536.4031197150803
 10
-719.6195009065785
 20
-536.590182685811
 10
-719.3708052909842
 20
-536.7769287214473
 10
-719.121846495618
 20
-536.9633245156072
 10
-718.8725994812719
 20
-537.1493367619076
 10
-718.6781030236197
 20
-537.2939034219082
 10
-718.4833032909631
 20
-537.4380583527136
 10
-718.2882282878422
 20
-537.5818396041267
 10
-718.0929060187981
 20
-537.7252852259508
 10
-717.8973644883702
 20
-537.8684332679878
 10
-717.7016317010994
 20
-538.0113217800414
 10
-717.5057356615263
 20
-538.1539888119141
 10
-717.309704374191
 20
-538.296472413409
 10
-717.1135658436338
 20
-538.4388106343287
 10
-716.917348074395
 20
-538.5810415244761
 10
-716.7210790710159
 20
-538.7232031336544
 10
-716.5247868380358
 20
-538.865333511666
 10
-716.3284993799955
 20
-539.0074707083139
 10
-716.1322447014354
 20
-539.1496527734009
 10
-715.9360508068959
 20
-539.2919177567303
 10
-715.7399457009172
 20
-539.4343037081045
 10
-715.5439573880401
 20
-539.5768486773266
 10
-715.3481138728044
 20
-539.7195907141991
 10
-715.1524431597511
 20
-539.8625678685253
 10
-714.9569732534203
 20
-540.0058181901078
 10
-714.6124607400163
 20
-540.258976796161
 10
-714.2681889109838
 20
-540.5124641000347
 10
-713.9241227479388
 20
-540.7662322352461
 10
-713.5802272324983
 20
-541.0202333353135
 10
-713.2364673462782
 20
-541.2744195337539
 10
-712.8928080708955
 20
-541.5287429640855
 10
-712.5492143879667
 20
-541.783155759826
 10
-712.2056512791082
 20
-542.0376100544928
 10
-711.8620837259364
 20
-542.2920579816038
 10
-711.5184767100675
 20
-542.5464516746765
 10
-711.1747952131186
 20
-542.8007432672291
 10
-710.831004216706
 20
-543.0548848927788
 10
-710.4870687024461
 20
-543.3088286848434
 10
-710.1429536519553
 20
-543.5625267769407
 10
-709.7986240468504
 20
-543.8159313025885
 10
-709.4540448687474
 20
-544.0689943953041
 10
-709.1091810992634
 20
-544.3216681886056
 10
-708.7639977200145
 20
-544.5739048160104
 10
-708.4184597126172
 20
-544.8256564110366
 10
-708.0725320586882
 20
-545.0768751072015
 10
-707.7854961323
 20
-545.2848258501533
 10
-707.4983179010824
 20
-545.4925849359522
 10
-707.2109891220476
 20
-545.700139731273
 10
-706.9235015522092
 20
-545.907477602791
 10
-706.6358469485792
 20
-546.114585917181
 10
-706.3480170681703
 20
-546.3214520411182
 10
-706.0600036679956
 20
-546.5280633412781
 10
-705.7717985050673
 20
-546.7344071843353
 10
-705.4833933363981
 20
-546.940470936965
 10
-705.1947799190004
 20
-547.1462419658421
 10
-704.9059500098876
 20
-547.3517076376422
 10
-704.616895366072
 20
-547.55685531904
 10
-704.3276077445659
 20
-547.7616723767105
 10
-704.0380789023822
 20
-547.966146177329
 10
-703.7483005965337
 20
-548.1702640875706
 10
-703.4582645840328
 20
-548.3740134741101
 10
-703.1679626218925
 20
-548.5773817036229
 10
-702.8773864671248
 20
-548.7803561427838
 10
-702.586527876743
 20
-548.9829241582681
 10
-702.2953786077596
 20
-549.1850731167509
 10
-701.9823616019672
 20
-549.4018991499629
 10
-701.6691760978539
 20
-549.6184908544941
 10
-701.3558094892342
 20
-549.8348277709388
 10
-701.0422491699238
 20
-550.0508894398921
 10
-700.7284825337372
 20
-550.266655401948
 10
-700.4144969744896
 20
-550.4821051977016
 10
-700.1002798859962
 20
-550.6972183677474
 10
-699.7858186620718
 20
-550.91197445268
 10
-699.4711006965317
 20
-551.1263529930939
 10
-699.1561133831902
 20
-551.3403335295836
 10
-698.8408441158635
 20
-551.5538956027443
 10
-698.5252802883658
 20
-551.76701875317
 10
-698.2094092945122
 20
-551.9796825214555
 10
-697.8932185281177
 20
-552.1918664481954
 10
-697.5766953829976
 20
-552.4035500739843
 10
-697.2598272529667
 20
-552.6147129394168
 10
-696.9426015318402
 20
-552.8253345850876
 10
-696.6250056134329
 20
-553.0353945515913
 10
-696.30702689156
 20
-553.2448723795223
 10
-695.9886527600365
 20
-553.4537476094755
 10
-695.6819774549435
 20
-553.6542731338824
 10
-695.3750561518215
 20
-553.8544381621984
 10
-695.067876441386
 20
-554.0542195452978
 10
-694.7604259143537
 20
-554.2535941340557
 10
-694.4526921614396
 20
-554.4525387793457
 10
-694.14466277336
 20
-554.6510303320431
 10
-693.8363253408311
 20
-554.8490456430226
 10
-693.5276674545681
 20
-555.0465615631583
 10
-693.2186767052875
 20
-555.2435549433249
 10
-692.9093406837045
 20
-555.4400026343968
 10
-692.5996469805359
 20
-555.6358814872492
 10
-692.2895831864969
 20
-555.8311683527561
 10
-691.9791368923036
 20
-556.0258400817922
 10
-691.6682956886717
 20
-556.2198735252321
 10
-691.3570471663174
 20
-556.4132455339504
 10
-691.0453789159562
 20
-556.6059329588215
 10
-690.7332785283045
 20
-556.7979126507204
 10
-690.4207335940777
 20
-556.989161460521
 10
-690.1077317039919
 20
-557.1796562390984
 10
-689.794260448763
 20
-557.3693738373271
 10
-689.4641809965511
 20
-557.5682560104751
 10
-689.1337971284951
 20
-557.7666596809553
 10
-688.8030944641466
 20
-557.9645538905901
 10
-688.4720586230577
 20
-558.1619076812026
 10
-688.1406752247798
 20
-558.3586900946152
 10
-687.8089298888651
 20
-558.5548701726507
 10
-687.4768082348656
 20
-558.750416957132
 10
-687.1442958823332
 20
-558.9452994898817
 10
-686.8113784508193
 20
-559.1394868127223
 10
-686.4780415598761
 20
-559.3329479674767
 10
-686.1442708290558
 20
-559.5256519959679
 10
-685.8100518779097
 20
-559.7175679400182
 10
-685.4753703259898
 20
-559.9086648414506
 10
-685.1402117928482
 20
-560.0989117420875
 10
-684.8045618980367
 20
-560.2882776837519
 10
-684.468406261107
 20
-560.4767317082662
 10
-684.1317305016114
 20
-560.6642428574536
 10
-683.7945202391011
 20
-560.8507801731364
 10
-683.4567610931284
 20
-561.0363126971375
 10
-683.1184386832454
 20
-561.2208094712796
 10
-682.8450148594808
 20
-561.3684646914169
 10
-682.5708827362134
 20
-561.5147798885181
 10
-682.2960866704681
 20
-561.6598373352218
 10
-682.0206710192701
 20
-561.803719304168
 10
-681.7446801396441
 20
-561.9465080679951
 10
-681.4681583886153
 20
-562.0882858993432
 10
-681.1911501232094
 20
-562.2291350708514
 10
-680.9136997004507
 20
-562.3691378551589
 10
-680.6358514773643
 20
-562.5083765249049
 10
-680.3576498109753
 20
-562.6469333527286
 10
-680.0791390583094
 20
-562.7848906112698
 10
-679.8003635763907
 20
-562.9223305731674
 10
-679.5213677222449
 20
-563.0593355110607
 10
-679.2421958528968
 20
-563.1959876975889
 10
-678.9628923253715
 20
-563.3323694053917
 10
-678.6835014966939
 20
-563.4685629071079
 10
-678.4040677238895
 20
-563.6046504753772
 10
-678.1246353639829
 20
-563.7407143828384
 10
-677.8452487739994
 20
-563.8768369021313
 10
-677.5659523109639
 20
-564.0131003058951
 10
-677.3290923967377
 20
-564.1284524768369
 10
-677.091995687955
 20
-564.2433140044712
 10
-676.8546762527353
 20
-564.3577137042312
 10
-676.6171481591982
 20
-564.4716803915503
 10
-676.3794254754625
 20
-564.5852428818615
 10
-676.1415222696481
 20
-564.6984299905979
 10
-675.9034526098744
 20
-564.8112705331931
 10
-675.6652305642606
 20
-564.9237933250799
 10
-675.4268702009259
 20
-565.0360271816918
 10
-675.1883855879897
 20
-565.1480009184615
 10
-674.9497907935721
 20
-565.2597433508231
 10
-674.7110998857917
 20
-565.3712832942091
 10
-674.4723269327679
 20
-565.4826495640527
 10
-674.2334860026205
 20
-565.5938709757874
 10
-673.9945911634687
 20
-565.7049763448463
 10
-673.7556564834318
 20
-565.8159944866625
 10
-673.5166960306294
 20
-565.9269542166695
 10
-673.2777238731807
 20
-566.0378843503
 10
-673.0387540792051
 20
-566.1488137029877
 10
-672.799800716822
 20
-566.2597710901656
 10
-672.5758170753306
 20
-566.3639702052756
 10
-672.3519315238783
 20
-566.4684019045998
 10
-672.1281157239987
 20
-566.5730012106835
 10
-671.9043413372275
 20
-566.6777031460726
 10
-671.6805800250984
 20
-566.7824427333122
 10
-671.4568034491467
 20
-566.887154994948
 10
-671.2329832709073
 20
-566.9917749535258
 10
-671.0090911519146
 20
-567.0962376315907
 10
-670.7850987537032
 20
-567.2004780516883
 10
-670.5609777378078
 20
-567.304431236364
 10
-670.3366997657636
 20
-567.4080322081638
 10
-670.1122364991047
 20
-567.5112159896328
 10
-669.8875595993661
 20
-567.6139176033166
 10
-669.6626407280824
 20
-567.7160720717605
 10
-669.4374515467885
 20
-567.8176144175105
 10
-669.2119637170186
 20
-567.9184796631116
 10
-668.9861489003081
 20
-568.0186028311098
 10
-668.7599787581911
 20
-568.1179189440502
 10
-668.5334249522027
 20
-568.2163630244785
 10
-668.3064591438774
 20
-568.3138700949402
 10
-668.082449673162
 20
-568.4092533989594
 10
-667.858224203659
 20
-568.504158320323
 10
-667.6337790444153
 20
-568.5985678092533
 10
-667.4091105044788
 20
-568.6924648159725
 10
-667.1842148928963
 20
-568.7858322907025
 10
-666.9590885187158
 20
-568.8786531836661
 10
-666.7337276909852
 20
-568.9709104450855
 10
-666.5081287187513
 20
-569.0625870251827
 10
-666.2822879110615
 20
-569.1536658741799
 10
-666.0562015769638
 20
-569.2441299422992
 10
-665.8298660255055
 20
-569.3339621797636
 10
-665.6032775657338
 20
-569.4231455367946
 10
-665.3764325066966
 20
-569.5116629636146
 10
-665.1493271574409
 20
-569.599497410446
 10
-664.9219578270147
 20
-569.6866318275111
 10
-664.694320824465
 20
-569.7730491650318
 10
-664.4664124588397
 20
-569.8587323732307
 10
-664.2382290391859
 20
-569.9436644023298
 10
-664.0097668745514
 20
-570.0278282025515
 10
-663.7810222739834
 20
-570.111206724118
 10
-663.4783775172734
 20
-570.2203889557622
 10
-663.1754018913485
 20
-570.3286460720241
 10
-662.8721108820545
 20
-570.4360186222848
 10
-662.5685199752379
 20
-570.5425471559255
 10
-662.2646446567443
 20
-570.6482722223271
 10
-661.9605004124204
 20
-570.753234370871
 10
-661.6561027281125
 20
-570.8574741509387
 10
-661.3514670896665
 20
-570.9610321119111
 10
-661.0466089829284
 20
-571.0639488031692
 10
-660.7415438937447
 20
-571.1662647740941
 10
-660.4362873079617
 20
-571.2680205740677
 10
-660.1308547114255
 20
-571.3692567524705
 10
-659.8252615899819
 20
-571.4700138586837
 10
-659.5195234294775
 20
-571.5703324420888
 10
-659.2136557157585
 20
-571.670253052067
 10
-658.9076739346708
 20
-571.7698162379991
 10
-658.6015935720609
 20
-571.8690625492666
 10
-658.2954301137746
 20
-571.9680325352506
 10
-657.9891990456586
 20
-572.0667667453322
 10
-657.6829158535586
 20
-572.1653057288927
 10
-657.4050216737581
 20
-572.2546616338894
 10
-657.1271105612824
 20
-572.344032162725
 10
-656.8491619188811
 20
-572.4333393804067
 10
-656.571155149305
 20
-572.5225053519431
 10
-656.2930696553032
 20
-572.6114521423416
 10
-656.0148848396265
 20
-572.7001018166104
 10
-655.736580105025
 20
-572.7883764397578
 10
-655.4581348542488
 20
-572.8761980767913
 10
-655.1795284900476
 20
-572.9634887927191
 10
-654.9007404151716
 20
-573.050170652549
 10
-654.6217500323713
 20
-573.1361657212892
 10
-654.3425367443965
 20
-573.2213960639476
 10
-654.0630799539972
 20
-573.3057837455319
 10
-653.7833590639236
 20
-573.3892508310503
 10
-653.5033534769259
 20
-573.4717193855107
 10
-653.2230425957539
 20
-573.553111473921
 10
-652.9424058231582
 20
-573.6333491612895
 10
-652.6614225618882
 20
-573.7123545126237
 10
-652.3800722146948
 20
-573.7900495929318
 10
-652.0983341843274
 20
-573.8663564672217
 10
-651.7812581949303
 20
-573.9508513845535
 10
-651.4639164118531
 20
-574.0343939734051
 10
-651.1463132706168
 20
-574.1169838153737
 10
-650.8284532067431
 20
-574.1986204920577
 10
-650.5103406557527
 20
-574.2793035850535
 10
-650.191980053167
 20
-574.3590326759594
 10
-649.8733758345074
 20
-574.4378073463733
 10
-649.5545324352952
 20
-574.5156271778923
 10
-649.2354542910513
 20
-574.5924917521141
 10
-648.9161458372968
 20
-574.6684006506362
 10
-648.5966115095537
 20
-574.7433534550565
 10
-648.2768557433424
 20
-574.8173497469725
 10
-647.9568829741846
 20
-574.8903891079815
 10
-647.6366976376012
 20
-574.9624711196814
 10
-647.3163041691138
 20
-575.0335953636697
 10
-646.9957070042432
 20
-575.1037614215438
 10
-646.6749105785111
 20
-575.1729688749019
 10
-646.3539193274382
 20
-575.2412173053409
 10
-646.0327376865463
 20
-575.3085062944589
 10
-645.7113700913562
 20
-575.3748354238531
 10
-645.4526351766668
 20
-575.4270124337836
 10
-645.1936116152821
 20
-575.4776698501147
 10
-644.9343187749545
 20
-575.5269057040766
 10
-644.6747760234376
 20
-575.5748180269006
 10
-644.4150027284834
 20
-575.6215048498168
 10
-644.1550182578451
 20
-575.667064204056
 10
-643.894841979276
 20
-575.7115941208493
 10
-643.6344932605283
 20
-575.7551926314267
 10
-643.373991469355
 20
-575.7979577670192
 10
-643.1133559735089
 20
-575.839987558857
 10
-642.8526061407433
 20
-575.8813800381716
 10
-642.5917613388106
 20
-575.922233236193
 10
-642.3308409354636
 20
-575.962645184152
 10
-642.0698642984553
 20
-576.0027139132792
 10
-641.8088507955388
 20
-576.0425374548054
 10
-641.5478197944665
 20
-576.082213839961
 10
-641.2867906629915
 20
-576.121841099977
 10
-641.0257827688665
 20
-576.1615172660837
 10
-640.7648154798445
 20
-576.2013403695119
 10
-640.5039081636783
 20
-576.2414084414924
 10
-640.2235091687267
 20
-576.2844647710209
 10
-639.943056679878
 20
-576.3271774844641
 10
-639.6625519837751
 20
-576.369552321198
 10
-639.3819963670618
 20
-576.4115950206
 10
-639.1013911163806
 20
-576.453311322046
 10
-638.8207375183752
 20
-576.4947069649133
 10
-638.540036859689
 20
-576.5357876885788
 10
-638.2592904269654
 20
-576.5765592324187
 10
-637.9784995068472
 20
-576.6170273358098
 10
-637.6976653859779
 20
-576.6571977381287
 10
-637.4167893510008
 20
-576.6970761787527
 10
-637.1358726885593
 20
-576.7366683970579
 10
-636.8549166852965
 20
-576.7759801324212
 10
-636.5739226278556
 20
-576.815017124219
 10
-636.2928918028803
 20
-576.8537851118285
 10
-636.0118254970133
 20
-576.8922898346261
 10
-635.7307249968985
 20
-576.9305370319887
 10
-635.4495915891785
 20
-576.9685324432927
 10
-635.1684265604972
 20
-577.0062818079151
 10
-634.8872311974975
 20
-577.0437908652325
 10
-634.5891061685289
 20
-577.0835780213012
 10
-634.2909966550252
 20
-577.123597392066
 10
-633.9928937336598
 20
-577.1637597914884
 10
-633.6947884811077
 20
-577.2039760335305
 10
-633.3966719740419
 20
-577.2441569321529
 10
-633.0985352891372
 20
-577.284213301318
 10
-632.8003695030677
 20
-577.3240559549873
 10
-632.5021656925074
 20
-577.3635957071222
 10
-632.2039149341304
 20
-577.4027433716841
 10
-631.9056083046105
 20
-577.4414097626347
 10
-631.6072368806225
 20
-577.479505693936
 10
-631.3087917388398
 20
-577.5169419795491
 10
-631.0102639559368
 20
-577.5536294334356
 10
-630.7116446085874
 20
-577.5894788695573
 10
-630.4129247734662
 20
-577.6244011018758
 10
-630.1140955272468
 20
-577.6583069443525
 10
-629.8151479466037
 20
-577.691107210949
 10
-629.5160731082104
 20
-577.7227127156268
 10
-629.2168620887417
 20
-577.7530342723478
 10
-628.9175059648712
 20
-577.7819826950735
 10
-628.6549499887693
 20
-577.8062184951307
 10
-628.392297486193
 20
-577.829441524589
 10
-628.1295535719248
 20
-577.8516769267659
 10
-627.8667233607483
 20
-577.8729498449795
 10
-627.6038119674455
 20
-577.8932854225467
 10
-627.3408245067995
 20
-577.9127088027857
 10
-627.0777660935937
 20
-577.9312451290145
 10
-626.8146418426104
 20
-577.9489195445502
 10
-626.5514568686326
 20
-577.9657571927107
 10
-626.2882162864429
 20
-577.9817832168135
 10
-626.0249252108248
 20
-577.9970227601767
 10
-625.7615887565606
 20
-578.0115009661178
 10
-625.4982120384333
 20
-578.0252429779542
 10
-625.2348001712257
 20
-578.0382739390038
 10
-624.971358269721
 20
-578.0506189925844
 10
-624.7078914487015
 20
-578.0623032820135
 10
-624.4444048229507
 20
-578.073351950609
 10
-624.1809035072506
 20
-578.0837901416883
 10
-623.917392616385
 20
-578.0936429985692
 10
-623.6538772651361
 20
-578.1029356645694
 10
-623.3078035821698
 20
-578.1143253357943
 10
-622.9617014339316
 20
-578.1248232369333
 10
-622.6155728570408
 20
-578.1344626388476
 10
-622.2694198881161
 20
-578.1432768124
 10
-621.923244563776
 20
-578.1512990284522
 10
-621.5770489206396
 20
-578.158562557866
 10
-621.2308349953263
 20
-578.1651006715042
 10
-620.8846048244543
 20
-578.1709466402283
 10
-620.5383604446425
 20
-578.1761337349004
 10
-620.1921038925101
 20
-578.1806952263827
 10
-619.845837204676
 20
-578.1846643855374
 10
-619.4995624177587
 20
-578.1880744832263
 10
-619.1532815683773
 20
-578.1909587903115
 10
-618.8069966931505
 20
-578.1933505776549
 10
-618.4607098286975
 20
-578.1952831161191
 10
-618.1144230116367
 20
-578.1967896765655
 10
-617.7681382785876
 20
-578.1979035298568
 10
-617.4218576661684
 20
-578.1986579468545
 10
-617.0755832109984
 20
-578.199086198421
 10
-616.7293169496962
 20
-578.1992215554183
 10
-616.4452314331116
 20
-578.1989660006653
 10
-616.1611439437644
 20
-578.1982024606227
 10
-615.8770555497208
 20
-578.1969356216141
 10
-615.592967319049
 20
-578.1951701699637
 10
-615.3088803198153
 20
-578.1929107919948
 10
-615.0247956200874
 20
-578.190162174032
 10
-614.7407142879326
 20
-578.1869290023992
 10
-614.4566373914176
 20
-578.18321596342
 10
-614.17256599861
 20
-578.1790277434185
 10
-613.8885011775767
 20
-578.1743690287184
 10
-613.604443996385
 20
-578.1692445056441
 10
-613.3203955231022
 20
-578.163658860519
 10
-613.0363568257952
 20
-578.1576167796674
 10
-612.7523289725314
 20
-578.1511229494129
 10
-612.4683130313779
 20
-578.1441820560798
 10
-612.1843100704018
 20
-578.1367987859917
 10
-611.9003211576705
 20
-578.1289778254728
 10
-611.616347361251
 20
-578.1207238608467
 10
-611.3323897492105
 20
-578.1120415784376
 10
-611.0484493896163
 20
-578.1029356645694
 10
-610.7943166708236
 20
-578.0943226706443
 10
-610.5402017591414
 20
-578.0851715159253
 10
-610.286104821484
 20
-578.0754977688799
 10
-610.0320260247669
 20
-578.0653169979773
 10
-609.7779655359046
 20
-578.0546447716848
 10
-609.5239235218128
 20
-578.0434966584713
 10
-609.2699001494061
 20
-578.031888226805
 10
-609.0158955856
 20
-578.0198350451539
 10
-608.761909997309
 20
-578.0073526819862
 10
-608.5079435514483
 20
-577.9944567057702
 10
-608.2539964149332
 20
-577.9811626849746
 10
-608.0000687546785
 20
-577.9674861880669
 10
-607.7461607375991
 20
-577.9534427835159
 10
-607.4922725306103
 20
-577.9390480397894
 10
-607.2384043006272
 20
-577.9243175253562
 10
-606.9845562145645
 20
-577.9092668086839
 10
-606.7307284393376
 20
-577.8939114582415
 10
-606.4769211418611
 20
-577.8782670424964
 10
-606.2231344890505
 20
-577.8623491299174
 10
-605.9693686478206
 20
-577.8461732889726
 10
-605.6734508272608
 20
-577.8270761937489
 10
-605.3775401719266
 20
-577.8077833035743
 10
-605.0816396963401
 20
-577.788268134929
 10
-604.7857524150247
 20
-577.7685042042942
 10
-604.4898813425024
 20
-577.7484650281498
 10
-604.1940294932962
 20
-577.7281241229765
 10
-603.8981998819293
 20
-577.7074550052555
 10
-603.6023955229238
 20
-577.686431191467
 10
-603.3066194308026
 20
-577.6650261980915
 10
-603.0108746200883
 20
-577.6432135416096
 10
-602.7151641053042
 20
-577.6209667385023
 10
-602.4194909009724
 20
-577.5982593052497
 10
-602.1238580216159
 20
-577.5750647583327
 10
-601.8282684817572
 20
-577.5513566142317
 10
-601.5327252959194
 20
-577.5271083894277
 10
-601.2372314786246
 20
-577.5022936004007
 10
-600.9417900443964
 20
-577.4768857636318
 10
-600.6464040077567
 20
-577.4508583956011
 10
-600.3510763832287
 20
-577.4241850127898
 10
-600.0558101853351
 20
-577.3968391316781
 10
-599.7692494052069
 20
-577.3696722710547
 10
-599.482740248327
 20
-577.3419368848027
 10
-599.1962830835585
 20
-577.3136412633982
 10
-598.9098782797656
 20
-577.2847936973179
 10
-598.6235262058115
 20
-577.2554024770373
 10
-598.3372272305603
 20
-577.2254758930329
 10
-598.0509817228761
 20
-577.1950222357815
 10
-597.7647900516222
 20
-577.1640497957587
 10
-597.4786525856622
 20
-577.1325668634411
 10
-597.1925696938602
 20
-577.1005817293045
 10
-596.9065417450798
 20
-577.0681026838258
 10
-596.6205691081848
 20
-577.0351380174809
 10
-596.3346521520389
 20
-577.0016960207458
 10
-596.0487912455058
 20
-576.967784984097
 10
-595.7629867574493
 20
-576.9334131980108
 10
-595.4772390567332
 20
-576.8985889529633
 10
-595.1915485122213
 20
-576.863320539431
 10
-594.905915492777
 20
-576.8276162478896
 10
-594.6203403672644
 20
-576.791484368816
 10
-594.3348235045471
 20
-576.754933192686
 10
-594.0594341425362
 20
-576.7189896809232
 10
-593.7841691274788
 20
-576.6821432714165
 10
-593.5090177942137
 20
-576.644471190817
 10
-593.233969477581
 20
-576.6060506657769
 10
-592.9590135124193
 20
-576.5669589229475
 10
-592.6841392335689
 20
-576.5272731889808
 10
-592.4093359758689
 20
-576.4870706905283
 10
-592.1345930741589
 20
-576.4464286542418
 10
-591.859899863278
 20
-576.4054243067727
 10
-591.5852456780657
 20
-576.3641348747726
 10
-591.310619853362
 20
-576.3226375848938
 10
-591.0360117240059
 20
-576.2810096637874
 10
-590.7614106248368
 20
-576.239328338105
 10
-590.4868058906943
 20
-576.1976708344985
 10
-590.2121868564179
 20
-576.1561143796197
 10
-589.9375428568467
 20
-576.1147362001198
 10
-589.6628632268208
 20
-576.073613522651
 10
-589.388137301179
 20
-576.0328235738646
 10
-589.1133544147611
 20
-575.9924435804123
 10
-588.8385039024065
 20
-575.952550768946
 10
-588.356275745465
 20
-575.8834970162056
 10
-587.8739260159201
 20
-575.8152481614467
 10
-587.3914749113159
 20
-575.7476709122732
 10
-586.908942629198
 20
-575.6806319762909
 10
-586.4263493671107
 20
-575.6139980611036
 10
-585.943715322599
 20
-575.5476358743173
 10
-585.4610606932081
 20
-575.4814121235366
 10
-584.9784056764827
 20
-575.4151935163661
 10
-584.4957704699673
 20
-575.348846760411
 10
-584.013175271207
 20
-575.2822385632758
 10
-583.530640277747
 20
-575.215235632566
 10
-583.0481856871318
 20
-575.147704675886
 10
-582.5658316969063
 20
-575.0795124008408
 10
-582.0835985046153
 20
-575.0105255150354
 10
-581.6015063078039
 20
-574.9406107260749
 10
-581.1195753040167
 20
-574.8696347415637
 10
-580.6378256907989
 20
-574.7974642691072
 10
-580.1562776656948
 20
-574.7239660163098
 10
-579.6749514262499
 20
-574.6490066907768
 10
-579.1938671700086
 20
-574.572453000113
 10
-578.6974226375314
 20
-574.4922388535657
 10
-578.2010725272876
 20
-574.4113651209482
 10
-577.7048252176248
 20
-574.3298005416918
 10
-577.2086890868925
 20
-574.2475138552288
 10
-576.7126725134382
 20
-574.1644738009899
 10
-576.216783875611
 20
-574.0806491184073
 10
-575.7210315517596
 20
-573.996008546913
 10
-575.2254239202317
 20
-573.9105208259381
 10
-574.7299693593765
 20
-573.8241546949143
 10
-574.2346762475418
 20
-573.7368788932733
 10
-573.7395529630769
 20
-573.6486621604471
 10
-573.2446078843299
 20
-573.5594732358669
 10
-572.749849389649
 20
-573.4692808589645
 10
-572.2552858573829
 20
-573.3780537691714
 10
-571.7609256658804
 20
-573.2857607059196
 10
-571.2667771934895
 20
-573.1923704086405
 10
-570.7728488185589
 20
-573.0978516167659
 10
-570.2791489194371
 20
-573.0021730697273
 10
-569.7856858744726
 20
-572.9053035069564
 10
-569.2924680620139
 20
-572.8072116678849
 10
-568.9517901044031
 20
-572.7381474304863
 10
-568.6114487370332
 20
-572.6674919574754
 10
-568.2714242224935
 20
-572.595342573382
 10
-567.9316968233736
 20
-572.5217966027365
 10
-567.5922468022627
 20
-572.4469513700691
 10
-567.2530544217504
 20
-572.37090419991
 10
-566.9140999444267
 20
-572.2937524167895
 10
-566.5753636328806
 20
-572.2155933452381
 10
-566.2368257497016
 20
-572.1365243097853
 10
-565.8984665574791
 20
-572.0566426349617
 10
-565.5602663188032
 20
-571.9760456452979
 10
-565.2222052962627
 20
-571.8948306653235
 10
-564.8842637524475
 20
-571.8130950195691
 10
-564.5464219499469
 20
-571.7309360325646
 10
-564.2086601513506
 20
-571.6484510288408
 10
-563.8709586192479
 20
-571.5657373329273
 10
-563.5332976162284
 20
-571.4828922693546
 10
-563.1956574048814
 20
-571.4000131626528
 10
-562.8580182477967
 20
-571.3171973373524
 10
-562.5203604075637
 20
-571.2345421179833
 10
-562.2081526946532
 20
-571.1578220215385
 10
-561.8961257260477
 20
-571.0803820210912
 10
-561.5842648747573
 20
-571.0022803787825
 10
-561.2725555137932
 20
-570.9235753567554
 10
-560.9609830161653
 20
-570.8443252171511
 10
-560.6495327548846
 20
-570.7645882221124
 10
-560.338190102962
 20
-570.6844226337813
 10
-560.0269404334076
 20
-570.6038867142997
 10
-559.7157691192319
 20
-570.5230387258097
 10
-559.4046615334458
 20
-570.4419369304532
 10
-559.0936030490601
 20
-570.3606395903728
 10
-558.782579039085
 20
-570.2792049677101
 10
-558.4715748765311
 20
-570.1976913246075
 10
-558.160575934409
 20
-570.1161569232067
 10
-557.8495675857296
 20
-570.0346600256504
 10
-557.5385352035032
 20
-569.9532588940801
 10
-557.2274641607406
 20
-569.8720117906382
 10
-556.916339830452
 20
-569.7909769774666
 10
-556.6051475856485
 20
-569.7102127167075
 10
-556.2938727993404
 20
-569.629777270503
 10
-555.8829937948399
 20
-569.5240876180154
 10
-555.4720150538999
 20
-569.4187762120497
 10
-555.0609542379185
 20
-569.3137760671775
 10
-554.6498290082949
 20
-569.2090201979713
 10
-554.2386570264274
 20
-569.1044416190023
 10
-553.8274559537145
 20
-568.9999733448428
 10
-553.4162434515556
 20
-568.8955483900645
 10
-553.0050371813487
 20
-568.7910997692395
 10
-552.5938548044926
 20
-568.686560496939
 10
-552.1827139823857
 20
-568.5818635877353
 10
-551.7716323764272
 20
-568.4769420562004
 10
-551.3606276480155
 20
-568.371728916906
 10
-550.949717458549
 20
-568.2661571844238
 10
-550.5389194694266
 20
-568.1601598733258
 10
-550.128251342047
 20
-568.0536699981839
 10
-549.7177307378086
 20
-567.9466205735697
 10
-549.3073753181103
 20
-567.8389446140554
 10
-548.8972027443506
 20
-567.7305751342126
 10
-548.4872306779282
 20
-567.6214451486132
 10
-548.0774767802418
 20
-567.5114876718293
 10
-547.6535175704736
 20
-567.3967465400684
 10
-547.2297953439374
 20
-567.2811447795358
 10
-546.8062899661048
 20
-567.1647554517472
 10
-546.3829813024483
 20
-567.047651618219
 10
-545.959849218439
 20
-566.9299063404662
 10
-545.5368735795493
 20
-566.8115926800058
 10
-545.114034251251
 20
-566.6927836983535
 10
-544.691311099016
 20
-566.5735524570254
 10
-544.2686839883161
 20
-566.4539720175372
 10
-543.846132784623
 20
-566.334115441405
 10
-543.4236373534092
 20
-566.2140557901449
 10
-543.001177560146
 20
-566.093866125273
 10
-542.5787332703055
 20
-565.9736195083052
 10
-542.1562843493593
 20
-565.8533890007573
 10
-541.73381066278
 20
-565.7332476641456
 10
-541.3112920760386
 20
-565.6132685599857
 10
-540.8887084546079
 20
-565.4935247497942
 10
-540.466039663959
 20
-565.3740892950866
 10
-540.0432655695643
 20
-565.2550352573792
 10
-539.6203660368953
 20
-565.1364356981877
 10
-539.2288408752721
 20
-565.0271726595546
 10
-538.8371793073559
 20
-564.9183893736939
 10
-538.4454034103152
 20
-564.8100083209152
 10
-538.0535352613194
 20
-564.7019519815292
 10
-537.6615969375366
 20
-564.594142835845
 10
-537.2696105161359
 20
-564.4865033641729
 10
-536.8775980742865
 20
-564.3789560468231
 10
-536.4855816891568
 20
-564.2714233641053
 10
-536.0935834379156
 20
-564.1638277963295
 10
-535.7016253977318
 20
-564.0560918238054
 10
-535.3097296457745
 20
-563.9481379268436
 10
-534.9179182592121
 20
-563.8398885857536
 10
-534.5262133152136
 20
-563.7312662808451
 10
-534.1346368909476
 20
-563.6221934924287
 10
-533.7432110635832
 20
-563.5125927008139
 10
-533.351957910289
 20
-563.4023863863108
 10
-532.9608995082341
 20
-563.2914970292295
 10
-532.570057934587
 20
-563.1798471098796
 10
-532.1794552665167
 20
-563.0673591085713
 10
-531.7891135811919
 20
-562.9539555056145
 10
-531.5085557425806
 20
-562.8717053715973
 10
-531.2281905999711
 20
-562.7888043081481
 10
-530.9480093488569
 20
-562.7052834847725
 10
-530.668003184732
 20
-562.6211740709779
 10
-530.3881633030894
 20
-562.5365072362695
 10
-530.1084808994228
 20
-562.4513141501541
 10
-529.8289471692261
 20
-562.3656259821382
 10
-529.5495533079925
 20
-562.279473901728
 10
-529.2702905112154
 20
-562.1928890784294
 10
-528.9911499743885
 20
-562.1059026817491
 10
-528.7121228930055
 20
-562.0185458811934
 10
-528.4332004625599
 20
-561.9308498462685
 10
-528.1543738785449
 20
-561.8428457464809
 10
-527.8756343364543
 20
-561.7545647513365
 10
-527.5969730317817
 20
-561.666038030342
 10
-527.3183811600204
 20
-561.5772967530033
 10
-527.0398499166643
 20
-561.4883720888273
 10
-526.7613704972065
 20
-561.3992952073197
 10
-526.482934097141
 20
-561.3100972779872
 10
-526.2045319119609
 20
-561.2208094703359
 10
-525.8827592514538
 20
-561.1174106558001
 10
-525.5610763975967
 20
-561.0137301576959
 10
-525.2394827631584
 20
-560.9097707888038
 10
-524.9179777609086
 20
-560.8055353619051
 10
-524.5965608036154
 20
-560.7010266897797
 10
-524.2752313040486
 20
-560.5962475852091
 10
-523.953988674977
 20
-560.4912008609739
 10
-523.63283232917
 20
-560.3858893298545
 10
-523.3117616793961
 20
-560.280315804632
 10
-522.9907761384245
 20
-560.1744830980867
 10
-522.6698751190248
 20
-560.068394023
 10
-522.3490580339655
 20
-559.9620513921523
 10
-522.028324296016
 20
-559.855458018324
 10
-521.7076733179449
 20
-559.7486167142963
 10
-521.3871045125219
 20
-559.64153029285
 10
-521.0666172925155
 20
-559.5342015667654
 10
-520.7462110706953
 20
-559.4266333488238
 10
-520.4258852598298
 20
-559.3188284518053
 10
-520.1056392726884
 20
-559.2107896884913
 10
-519.7854725220402
 20
-559.1025198716621
 10
-519.5178993712465
 20
-559.0117147214904
 10
-519.250452372925
 20
-558.9205406959616
 10
-518.9831242033302
 20
-558.829019428495
 10
-518.715907538718
 20
-558.7371725525114
 10
-518.4487950553424
 20
-558.6450217014295
 10
-518.1817794294591
 20
-558.5525885086695
 10
-517.9148533373229
 20
-558.4598946076514
 10
-517.6480094551889
 20
-558.3669616317947
 10
-517.3812404593119
 20
-558.273811214519
 10
-517.1145390259469
 20
-558.1804649892441
 10
-516.8478978313491
 20
-558.0869445893904
 10
-516.5813095517734
 20
-557.993271648377
 10
-516.3147668634748
 20
-557.8994677996238
 10
-516.0482624427082
 20
-557.8055546765506
 10
-515.7817889657289
 20
-557.7115539125775
 10
-515.5153391087915
 20
-557.6174871411235
 10
-515.2489055481515
 20
-557.5233759956093
 10
-514.9824809600634
 20
-557.4292421094538
 10
-514.7160580207825
 20
-557.3351071160774
 10
-514.4496294065636
 20
-557.2409926488996
 10
-514.1026822944475
 20
-557.1183217587453
 10
-513.755817384948
 20
-556.9954192993141
 10
-513.4090265549105
 20
-556.8723081461325
 10
-513.0623016811812
 20
-556.7490111747278
 10
-512.715634640605
 20
-556.625551260626
 10
-512.3690173100283
 20
-556.5019512793548
 10
-512.0224415662965
 20
-556.378234106441
 10
-511.6758992862553
 20
-556.2544226174111
 10
-511.3293823467502
 20
-556.130539687792
 10
-510.9828826246269
 20
-556.0066081931104
 10
-510.6363919967315
 20
-555.8826510088938
 10
-510.2899023399092
 20
-555.7586910106685
 10
-509.9434055310059
 20
-555.6347510739614
 10
-509.5968934468671
 20
-555.5108540742995
 10
-509.2503579643387
 20
-555.3870228872097
 10
-508.9037909602662
 20
-555.2632803882186
 10
-508.5571843114953
 20
-555.1396494528533
 10
-508.2105298948717
 20
-555.0161529566404
 10
-507.8638195872412
 20
-554.8928137751071
 10
-507.5170452654492
 20
-554.7696547837801
 10
-507.2170641811742
 20
-554.6634277027337
 10
-506.916957573789
 20
-554.5575518581026
 10
-506.616744435001
 20
-554.4519741947139
 10
-506.3164437565185
 20
-554.346641657396
 10
-506.0160745300487
 20
-554.2415011909753
 10
-505.7156557472999
 20
-554.13649974028
 10
-505.4152063999798
 20
-554.0315842501376
 10
-505.1147454797962
 20
-553.9267016653755
 10
-504.8142919784568
 20
-553.821798930821
 10
-504.5138648876692
 20
-553.7168229913018
 10
-504.2134831991419
 20
-553.6117207916457
 10
-503.913165904582
 20
-553.5064392766799
 10
-503.6129319956974
 20
-553.4009253912318
 10
-503.3128004641961
 20
-553.295126080129
 10
-503.012790301786
 20
-553.1889882881992
 10
-502.7129205001746
 20
-553.0824589602698
 10
-502.4132100510699
 20
-552.9754850411683
 10
-502.1136779461795
 20
-552.8680134757221
 10
-501.8143431772113
 20
-552.7599912087591
 10
-501.5152247358732
 20
-552.6513651851063
 10
-501.2108765972645
 20
-552.5402554622664
 10
-500.9066651978877
 20
-552.4287713189113
 10
-500.6025861265097
 20
-552.3169255342262
 10
-500.2986349718983
 20
-552.2047308873969
 10
-499.99480732282
 20
-552.0922001576081
 10
-499.6910987680425
 20
-551.9793461240454
 10
-499.3875048963333
 20
-551.8661815658942
 10
-499.0840212964592
 20
-551.7527192623397
 10
-498.7806435571877
 20
-551.6389719925672
 10
-498.4773672672857
 20
-551.5249525357618
 10
-498.174188015521
 20
-551.4106736711096
 10
-497.8711013906604
 20
-551.2961481777951
 10
-497.5681029814713
 20
-551.1813888350039
 10
-497.2651883767209
 20
-551.0664084219212
 10
-496.9623531651766
 20
-550.9512197177327
 10
-496.6595929356054
 20
-550.8358355016233
 10
-496.3569032767748
 20
-550.7202685527784
 10
-496.0542797774518
 20
-550.6045316503834
 10
-495.7517180264039
 20
-550.4886375736236
 10
-495.4492136123982
 20
-550.3725991016844
 10
-495.1455297516163
 20
-550.2558674399638
 10
-494.8419519072654
 20
-550.138860287529
 10
-494.5384761730274
 20
-550.0215881044654
 10
-494.2350986425852
 20
-549.904061350859
 10
-493.9318154096205
 20
-549.7862904867942
 10
-493.6286225678161
 20
-549.6682859723571
 10
-493.3255162108546
 20
-549.5500582676334
 10
-493.0224924324181
 20
-549.4316178327082
 10
-492.7195473261887
 20
-549.3129751276666
 10
-492.4166769858492
 20
-549.1941406125944
 10
-492.1138775050819
 20
-549.0751247475773
 10
-491.8111449775691
 20
-548.9559379927003
 10
-491.5084754969931
 20
-548.836590808049
 10
-491.2058651570363
 20
-548.7170936537088
 10
-490.9033100513814
 20
-548.5974569897653
 10
-490.6008062737102
 20
-548.4776912763036
 10
-490.2983499177056
 20
-548.3578069734097
 10
-489.9959370770496
 20
-548.2378145411683
 10
-489.6935638454249
 20
-548.1177244396655
 10
-489.3912263165136
 20
-547.9975471289864
 10
-488.9431365031937
 20
-547.8187051575214
 10
-488.4954534942948
 20
-547.6388263953946
 10
-488.0481158122532
 20
-547.4580679973392
 10
-487.6010619795055
 20
-547.2765871180899
 10
-487.1542305184876
 20
-547.0945409123799
 10
-486.7075599516362
 20
-546.9120865349438
 10
-486.2609888013879
 20
-546.7293811405156
 10
-485.8144555901788
 20
-546.5465818838293
 10
-485.3678988404453
 20
-546.3638459196186
 10
-484.9212570746236
 20
-546.1813304026175
 10
-484.4744688151506
 20
-545.9991924875607
 10
-484.0274725844624
 20
-545.8175893291815
 10
-483.5802069049952
 20
-545.6366780822141
 10
-483.1326102991856
 20
-545.4566159013925
 10
-482.68462128947
 20
-545.277559941451
 10
-482.2361783982845
 20
-545.099667357123
 10
-481.787220148066
 20
-544.9230953031432
 10
-481.3376850612503
 20
-544.748000934245
 10
-480.8875116602744
 20
-544.574541405163
 10
-480.4366384675741
 20
-544.4028738706307
 10
-479.9839308289671
 20
-544.2324886102953
 10
-479.5306738639529
 20
-544.0635930835122
 10
-479.0769056957383
 20
-543.8960846857547
 10
-478.6226644475303
 20
-543.7298608124967
 10
-478.1679882425354
 20
-543.5648188592113
 10
-477.7129152039608
 20
-543.4008562213725
 10
-477.2574834550135
 20
-543.2378702944541
 10
-476.8017311189001
 20
-543.0757584739292
 10
-476.3456963188274
 20
-542.9144181552714
 10
-475.8894171780023
 20
-542.7537467339545
 10
-475.432931819632
 20
-542.5936416054523
 10
-474.9762783669231
 20
-542.4340001652378
 10
-474.5194949430824
 20
-542.274719808785
 10
-474.0626196713168
 20
-542.1156979315673
 10
-473.6056906748334
 20
-541.9568319290586
 10
-473.1487460768387
 20
-541.798019196732
 10
-472.69182400054
 20
-541.6391571300614
 10
-472.2349625691436
 20
-541.4801431245202
 10
-471.7781999058569
 20
-541.3208745755821
 10
-471.3215741338866
 20
-541.1612488787208
 10
-471.0126370323385
 20
-541.0530637608927
 10
-470.7037003074983
 20
-540.9448610121171
 10
-470.3947501682649
 20
-540.8366834066373
 10
-470.085772823538
 20
-540.728573718698
 10
-469.7767544822164
 20
-540.6205747225421
 10
-469.4676813532
 20
-540.5127291924136
 10
-469.1585396453879
 20
-540.4050799025568
 10
-468.8493155676794
 20
-540.2976696272153
 10
-468.5399953289739
 20
-540.1905411406327
 10
-468.2305651381703
 20
-540.0837372170527
 10
-467.9210112041687
 20
-539.9773006307196
 10
-467.6113197358679
 20
-539.8712741558768
 10
-467.3014769421674
 20
-539.7657005667684
 10
-466.9914690319663
 20
-539.6606226376377
 10
-466.6812822141643
 20
-539.5560831427292
 10
-466.3709026976602
 20
-539.4521248562862
 10
-466.0603166913539
 20
-539.3487905525527
 10
-465.7495104041442
 20
-539.2461230057723
 10
-465.4384700449309
 20
-539.1441649901892
 10
-465.1271818226131
 20
-539.042959280047
 10
-464.8535794417292
 20
-538.9542949264079
 10
-464.5799733861007
 20
-538.8655264591931
 10
-464.3063359385284
 20
-538.7767627496396
 10
-464.0326393818139
 20
-538.6881126689857
 10
-463.7588559987577
 20
-538.5996850884682
 10
-463.4849580721614
 20
-538.5115888793251
 10
-463.2109178848262
 20
-538.423932912794
 10
-462.9367077195529
 20
-538.3368260601125
 10
-462.6622998591426
 20
-538.2503771925178
 10
-462.3876665863963
 20
-538.1646951812477
 10
-462.1127801841158
 20
-538.0798888975401
 10
-461.8376129351016
 20
-537.9960672126319
 10
-461.5621371221549
 20
-537.9133389977612
 10
-461.2863250280768
 20
-537.8318131241654
 10
-461.0101489356688
 20
-537.7515984630821
 10
-460.7335811277314
 20
-537.6728038857489
 10
-460.4565938870662
 20
-537.5955382634032
 10
-460.1791594964741
 20
-537.5199104672827
 10
-459.9012502387564
 20
-537.446029368625
 10
-459.622838396714
 20
-537.3740038386676
 10
-459.2588662826656
 20
-537.2822748329643
 10
-458.8944217262394
 20
-537.1925045920353
 10
-458.529535807243
 20
-537.104568247424
 10
-458.1642396054842
 20
-537.0183409306742
 10
-457.7985642007702
 20
-536.9336977733285
 10
-457.4325406729091
 20
-536.8505139069307
 10
-457.0662001017087
 20
-536.7686644630244
 10
-456.6995735669763
 20
-536.6880245731527
 10
-456.3326921485195
 20
-536.608469368859
 10
-455.9655869261462
 20
-536.5298739816866
 10
-455.5982889796642
 20
-536.4521135431793
 10
-455.2308293888808
 20
-536.3750631848801
 10
-454.8632392336038
 20
-536.2985980383323
 10
-454.4955495936408
 20
-536.2225932350796
 10
-454.1277915487997
 20
-536.1469239066654
 10
-453.7599961788878
 20
-536.0714651846326
 10
-453.3921945637131
 20
-535.9960922005253
 10
-453.024417783083
 20
-535.9206800858861
 10
-452.6566969168053
 20
-535.845103972259
 10
-452.2890630446877
 20
-535.7692389911873
 10
-452.0282818646365
 20
-535.7154622783121
 10
-451.7674236424628
 20
-535.6620341939708
 10
-451.5064872625539
 20
-535.6089673176638
 10
-451.2454716092971
 20
-535.556274228892
 10
-450.9843755670794
 20
-535.5039675071555
 10
-450.7231980202884
 20
-535.452059731955
 10
-450.4619378533116
 20
-535.4005634827913
 10
-450.200593950536
 20
-535.349491339165
 10
-449.9391651963488
 20
-535.2988558805762
 10
-449.6776504751374
 20
-535.2486696865255
 10
-449.4160486712894
 20
-535.198945336514
 10
-449.1543586691918
 20
-535.1496954100419
 10
-448.8925793532318
 20
-535.1009324866096
 10
-448.6307096077969
 20
-535.0526691457179
 10
-448.3687483172745
 20
-535.0049179668674
 10
-448.1066943660514
 20
-534.9576915295582
 10
-447.8445466385156
 20
-534.9110024132915
 10
-447.5823040190537
 20
-534.8648631975673
 10
-447.3199653920536
 20
-534.8192864618866
 10
-447.0575296419022
 20
-534.7742847857496
 10
-446.754571954551
 20
-534.723144647044
 10
-446.4514742959062
 20
-534.6728651485523
 10
-446.1482469408335
 20
-534.6233835863467
 10
-445.8449001641998
 20
-534.5746372565
 10
-445.5414442408706
 20
-534.526563455084
 10
-445.2378894457127
 20
-534.4790994781714
 10
-444.9342460535924
 20
-534.4321826218352
 10
-444.6305243393758
 20
-534.3857501821474
 10
-444.3267345779291
 20
-534.3397394551803
 10
-444.0228870441185
 20
-534.2940877370065
 10
-443.7189920128106
 20
-534.2487323236986
 10
-443.4150597588715
 20
-534.203610511329
 10
-443.1111005571673
 20
-534.1586595959699
 10
-442.8071246825644
 20
-534.1138168736938
 10
-442.5031424099292
 20
-534.0690196405735
 10
-442.1991640141275
 20
-534.0242051926809
 10
-441.8951997700261
 20
-533.9793108260892
 10
-441.591259952491
 20
-533.9342738368699
 10
-441.2873548363885
 20
-533.8890315210962
 10
-440.9834946965848
 20
-533.8435211748402
 10
-440.6787173835353
 20
-533.7977256539899
 10
-440.3739351836074
 20
-533.7519593483619
 10
-440.0691466655268
 20
-533.7062325134029
 10
-439.7643503980196
 20
-533.6605554045615
 10
-439.4595449498113
 20
-533.6149382772845
 10
-439.1547288896279
 20
-533.5693913870199
 10
-438.8499007861956
 20
-533.5239249892153
 10
-438.5450592082398
 20
-533.4785493393182
 10
-438.2402027244864
 20
-533.433274692776
 10
-437.9353299036614
 20
-533.3881113050362
 10
-437.6304393144908
 20
-533.3430694315471
 10
-437.3255295257001
 20
-533.2981593277555
 10
-437.0205991060154
 20
-533.2533912491091
 10
-436.7156466241624
 20
-533.2087754510558
 10
-436.4106706488672
 20
-533.164322189043
 10
-436.1056697488553
 20
-533.120041718518
 10
-435.8006424928529
 20
-533.0759442949291
 10
-435.4955874495856
 20
-533.032040173723
 10
-435.1905031877794
 20
-532.9883396103479
 10
-434.8853882761601
 20
-532.9448528602512
 10
-434.5357613461245
 20
-532.8951911619379
 10
-434.1861211326015
 20
-532.8456161836485
 10
-433.8364661335983
 20
-532.796140116833
 10
-433.4867948471226
 20
-532.7467751529422
 10
-433.137105771181
 20
-532.6975334834253
 10
-432.7873974037811
 20
-532.6484272997335
 10
-432.4376682429305
 20
-532.5994687933165
 10
-432.0879167866361
 20
-532.5506701556249
 10
-431.7381415329053
 20
-532.5020435781083
 10
-431.3883409797452
 20
-532.4536012522173
 10
-431.0385136251635
 20
-532.4053553694024
 10
-430.6886579671672
 20
-532.3573181211133
 10
-430.3387725037636
 20
-532.3095016988004
 10
-429.9888557329599
 20
-532.261918293914
 10
-429.6389061527636
 20
-532.2145800979043
 10
-429.2889222611818
 20
-532.1674993022214
 10
-428.938902556222
 20
-532.1206880983158
 10
-428.5888455358913
 20
-532.0741586776373
 10
-428.238749698197
 20
-532.0279232316364
 10
-427.8886135411464
 20
-531.9819939517632
 10
-427.5021381881027
 20
-531.9317117367475
 10
-427.1156063336843
 20
-531.8818724203282
 10
-426.729022605748
 20
-531.8324397171175
 10
-426.3423916321516
 20
-531.7833773417289
 10
-425.9557180407519
 20
-531.7346490087742
 10
-425.5690064594062
 20
-531.6862184328669
 10
-425.182261515972
 20
-531.6380493286198
 10
-424.7954878383063
 20
-531.5901054106454
 10
-424.4086900542662
 20
-531.5423503935564
 10
-424.021872791709
 20
-531.4947479919656
 10
-423.6350406784923
 20
-531.4472619204862
 10
-423.2481983424728
 20
-531.3998558937304
 10
-422.8613504115081
 20
-531.3524936263113
 10
-422.4745015134551
 20
-531.3051388328415
 10
-422.0876562761714
 20
-531.257755227934
 10
-421.7008193275138
 20
-531.2103065262012
 10
-421.31399529534
 20
-531.1627564422563
 10
-420.9271888075069
 20
-531.1150686907116
 10
-420.5404044918718
 20
-531.0672069861803
 10
-420.1536469762919
 20
-531.019135043275
 10
-419.9093295400631
 20
-530.9885760978126
 10
-419.6650368129183
 20
-530.9578115488074
 10
-419.4207645361209
 20
-530.9268768637502
 10
-419.1765084509349
 20
-530.8958075101335
 10
-418.9322642986232
 20
-530.8646389554481
 10
-418.6880278204497
 20
-530.833406667186
 10
-418.443794757678
 20
-530.8021461128387
 10
-418.1995608515715
 20
-530.7708927598978
 10
-417.9553218433937
 20
-530.7396820758548
 10
-417.7110734744081
 20
-530.708549528201
 10
-417.4668114858787
 20
-530.6775305844287
 10
-417.2225316190685
 20
-530.646660712029
 10
-416.9782296152413
 20
-530.6159753784932
 10
-416.7339012156604
 20
-530.5855100513131
 10
-416.4895421615896
 20
-530.5553001979807
 10
-416.2451481942924
 20
-530.5253812859869
 10
-416.0007150550323
 20
-530.4957887828238
 10
-415.7562384850728
 20
-530.4665581559825
 10
-415.5117142256775
 20
-530.437724872955
 10
-415.2671380181098
 20
-530.4093244012325
 10
-414.9961898962708
 20
-530.378084822503
 10
-414.7252389080415
 20
-530.3468104179664
 10
-414.4542810199713
 20
-530.3155482868616
 10
-414.1833121986101
 20
-530.2843455284288
 10
-413.9123284105067
 20
-530.2532492419066
 10
-413.6413256222112
 20
-530.2223065265346
 10
-413.3702998002732
 20
-530.1915644815523
 10
-413.0992469112419
 20
-530.1610702061989
 10
-412.8281629216669
 20
-530.1308707997139
 10
-412.5570437980977
 20
-530.1010133613362
 10
-412.2858855070842
 20
-530.0715449903058
 10
-412.0146840151755
 20
-530.0425127858618
 10
-411.7434352889212
 20
-530.0139638472433
 10
-411.4721352948709
 20
-529.9859452736898
 10
-411.2007799995742
 20
-529.958504164441
 10
-410.9293653695804
 20
-529.9316876187357
 10
-410.6578873714394
 20
-529.9055427358137
 10
-410.3863419717003
 20
-529.8801166149141
 10
-410.1147251369129
 20
-529.8554563552763
 10
-409.8430328336268
 20
-529.8316090561397
 10
-409.463099060838
 20
-529.7993094814854
 10
-409.0830957091583
 20
-529.7678731008446
 10
-408.7030274365417
 20
-529.7372440936746
 10
-408.322898900943
 20
-529.7073666394346
 10
-407.9427147603162
 20
-529.6781849175823
 10
-407.562479672616
 20
-529.6496431075761
 10
-407.1821982957968
 20
-529.6216853888749
 10
-406.801875287813
 20
-529.5942559409364
 10
-406.4215153066189
 20
-529.5672989432187
 10
-406.0411230101688
 20
-529.5407585751806
 10
-405.6607030564176
 20
-529.5145790162805
 10
-405.2802601033193
 20
-529.4887044459763
 10
-404.8997988088284
 20
-529.4630790437265
 10
-404.5193238308993
 20
-529.4376469889892
 10
-404.1388398274865
 20
-529.412352461223
 10
-403.7583514565443
 20
-529.3871396398858
 10
-403.3778633760273
 20
-529.3619527044365
 10
-402.9973802438897
 20
-529.3367358343328
 10
-402.6169067180861
 20
-529.3114332090333
 10
-402.2364474565707
 20
-529.2859890079964
 10
-402.1386519071104
 20
-529.279513352344
 10
-402.0408435322318
 20
-529.2732124384034
 10
-401.9430228009738
 20
-529.2670862892422
 10
-401.8451901823763
 20
-529.2611349279279
 10
-401.7473461454778
 20
-529.2553583775276
 10
-401.6494911593181
 20
-529.2497566611092
 10
-401.5516256929364
 20
-529.2443298017404
 10
-401.453750215372
 20
-529.2390778224883
 10
-401.3558651956641
 20
-529.2340007464204
 10
-401.257971102852
 20
-529.2290985966042
 10
-401.1600684059752
 20
-529.2243713961077
 10
-401.0621575740726
 20
-529.2198191679981
 10
-400.9642390761837
 20
-529.2154419353426
 10
-400.8663133813478
 20
-529.2112397212092
 10
-400.7683809586042
 20
-529.2072125486651
 10
-400.670442276992
 20
-529.2033604407777
 10
-400.5724978055508
 20
-529.199683420615
 10
-400.4745480133196
 20
-529.1961815112438
 10
-400.3765933693379
 20
-529.1928547357322
 10
-400.2786343426448
 20
-529.1897031171476
  0
ENDBLK
  5
44
330
41
100
AcDbEntity
  8
0
100
AcDbBlockEnd
  0
BLOCK
  5
68
330
66
100
AcDbEntity
  8
0
100
AcDbBlockBegin
  2
*E2
 70
     1
 71
     0
 10
0.0
 20
0.0
 30
0.0
  3
*E2
  1

  0
LWPOLYLINE
  5
67
330
66
100
AcDbEntity
  8
0
  6
Continuous
 62
     7
370
     0
100
AcDbPolyline
 90
     1181
 70
   128
 43
0.0
 10
-742.8103502616206
 20
-445.676673832957
 10
-742.7383953496252
 20
-445.5966847596711
 10
-742.6663904325605
 20
-445.5167404437132
 10
-742.5943355526923
 20
-445.4368409315118
 10
-742.5222307522869
 20
-445.3569862694965
 10
-742.4500760736096
 20
-445.2771765040957
 10
-742.3778715589272
 20
-445.1974116817387
 10
-742.3056172505055
 20
-445.1176918488547
 10
-742.2333131906107
 20
-445.0380170518725
 10
-742.1609594215086
 20
-444.9583873372209
 10
-742.0885559854651
 20
-444.8788027513291
 10
-742.016102924747
 20
-444.7992633406263
 10
-741.9436002816196
 20
-444.7197691515412
 10
-741.8710480983492
 20
-444.6403202305028
 10
-741.7984464172016
 20
-444.5609166239402
 10
-741.7257952804435
 20
-444.4815583782826
 10
-741.6530947303403
 20
-444.4022455399585
 10
-741.5803448091585
 20
-444.3229781553974
 10
-741.5075455591636
 20
-444.243756271028
 10
-741.4346970226222
 20
-444.1645799332794
 10
-741.3617992418001
 20
-444.0854491885806
 10
-741.3092154858115
 20
-444.028440116334
 10
-741.2565949370281
 20
-443.9714642384393
 10
-741.2039354156212
 20
-443.9145237613004
 10
-741.1512347417628
 20
-443.8576208913215
 10
-741.0984907356235
 20
-443.8007578349064
 10
-741.0457012173756
 20
-443.7439367984593
 10
-740.9928640071905
 20
-443.6871599883845
 10
-740.9399769252395
 20
-443.6304296110857
 10
-740.8870377916942
 20
-443.5737478729669
 10
-740.834044426726
 20
-443.5171169804323
 10
-740.7809946505067
 20
-443.460539139886
 10
-740.7278862832077
 20
-443.4040165577321
 10
-740.6747171450002
 20
-443.3475514403744
 10
-740.6214850560558
 20
-443.291145994217
 10
-740.5681878365465
 20
-443.2348024256642
 10
-740.5148233066433
 20
-443.1785229411195
 10
-740.4613892865179
 20
-443.1223097469876
 10
-740.4078835963419
 20
-443.0661650496721
 10
-740.3543040562867
 20
-443.0100910555773
 10
-740.3006484865236
 20
-442.9540899711071
 10
-740.1669125469391
 20
-442.8146369991517
 10
-740.033225718073
 20
-442.6751336699917
 10
-739.8995681811834
 20
-442.5355996188213
 10
-739.7659201175293
 20
-442.3960544808355
 10
-739.6322617083679
 20
-442.2565178912284
 10
-739.4985731349585
 20
-442.1170094851948
 10
-739.3648345785593
 20
-441.9775488979296
 10
-739.2310262204285
 20
-441.8381557646271
 10
-739.0971282418242
 20
-441.6988497204817
 10
-738.9631208240048
 20
-441.5596504006882
 10
-738.8289841482294
 20
-441.4205774404414
 10
-738.6946983957553
 20
-441.2816504749356
 10
-738.5602437478415
 20
-441.1428891393653
 10
-738.425600385746
 20
-441.0043130689253
 10
-738.2907484907273
 20
-440.8659418988102
 10
-738.1556682440436
 20
-440.7277952642144
 10
-738.0203398269534
 20
-440.5898928003327
 10
-737.8847434207149
 20
-440.4522541423595
 10
-737.7488592065866
 20
-440.3148989254895
 10
-737.6126673658268
 20
-440.1778467849173
 10
-737.4462336538854
 20
-440.0104552875941
 10
-737.2800270948476
 20
-439.8428021717526
 10
-737.1139735738071
 20
-439.6749678951809
 10
-736.9479989758589
 20
-439.5070329156687
 10
-736.7820291860965
 20
-439.3390776910039
 10
-736.6159900896148
 20
-439.1711826789756
 10
-736.4498075715079
 20
-439.0034283373728
 10
-736.2834075168702
 20
-438.835895123984
 10
-736.1167158107955
 20
-438.6686634965976
 10
-735.9496583383784
 20
-438.5018139130026
 10
-735.7821609847135
 20
-438.3354268309882
 10
-735.6141496348946
 20
-438.1695827083425
 10
-735.445550174016
 20
-438.0043620028546
 10
-735.2762884871723
 20
-437.8398451723129
 10
-735.1062904594577
 20
-437.6761126745066
 10
-734.935481975966
 20
-437.5132449672241
 10
-734.7637889217922
 20
-437.3513225082543
 10
-734.5911371820299
 20
-437.1904257553858
 10
-734.4174526417739
 20
-437.0306351664075
 10
-734.2426611861183
 20
-436.8720311991081
 10
-734.0449085454133
 20
-436.6949390227138
 10
-733.8461601842001
 20
-436.5189810002574
 10
-733.646475871775
 20
-436.3440906868291
 10
-733.4459153774351
 20
-436.1702016375196
 10
-733.2445384704762
 20
-435.9972474074189
 10
-733.0424049201955
 20
-435.8251615516175
 10
-732.8395744958896
 20
-435.653877625206
 10
-732.6361069668545
 20
-435.4833291832747
 10
-732.4320621023871
 20
-435.3134497809138
 10
-732.2274996717836
 20
-435.1441729732137
 10
-732.0224794443411
 20
-434.9754323152652
 10
-731.8170611893557
 20
-434.8071613621582
 10
-731.6113046761242
 20
-434.6392936689833
 10
-731.4052696739428
 20
-434.4717627908309
 10
-731.1990159521085
 20
-434.3045022827915
 10
-730.9926032799175
 20
-434.1374456999551
 10
-730.7860914266666
 20
-433.9705265974125
 10
-730.579540161652
 20
-433.8036785302538
 10
-730.3730092541706
 20
-433.6368350535696
 10
-730.1665584735188
 20
-433.4699297224501
 10
-729.9779347906881
 20
-433.3177377021139
 10
-729.788941865678
 20
-433.1660068286528
 10
-729.5996001277282
 20
-433.0147119791578
 10
-729.4099300060791
 20
-432.8638280307208
 10
-729.2199519299706
 20
-432.7133298604325
 10
-729.0296863286432
 20
-432.5631923453847
 10
-728.8391536313366
 20
-432.413390362669
 10
-728.6483742672912
 20
-432.2638987893763
 10
-728.4573686657469
 20
-432.1146925025982
 10
-728.2661572559439
 20
-431.965746379426
 10
-728.0747604671226
 20
-431.8170352969514
 10
-727.8831987285228
 20
-431.6685341322654
 10
-727.6914924693847
 20
-431.5202177624595
 10
-727.4996621189482
 20
-431.372061064625
 10
-727.3077281064541
 20
-431.2240389158535
 10
-727.1157108611417
 20
-431.0761261932361
 10
-726.9236308122518
 20
-430.9282977738645
 10
-726.7315083890239
 20
-430.7805285348297
 10
-726.5393640206985
 20
-430.6327933532235
 10
-726.3472181365158
 20
-430.4850671061369
 10
-726.1990112794705
 20
-430.3713714994773
 10
-726.0505725245924
 20
-430.2579809239382
 10
-725.9019223412785
 20
-430.1448684369173
 10
-725.7530811989268
 20
-430.0320070958132
 10
-725.6040695669333
 20
-429.9193699580235
 10
-725.4549079146957
 20
-429.8069300809466
 10
-725.3056167116122
 20
-429.6946605219808
 10
-725.1562164270788
 20
-429.582534338524
 10
-725.0067275304931
 20
-429.4705245879742
 10
-724.857170491252
 20
-429.3586043277298
 10
-724.7075657787536
 20
-429.246746615189
 10
-724.5579338623943
 20
-429.1349245077496
 10
-724.4082952115716
 20
-429.0231110628098
 10
-724.2586702956825
 20
-428.9112793377678
 10
-724.1090795841247
 20
-428.7994023900219
 10
-723.959543546295
 20
-428.6874532769698
 10
-723.8100826515907
 20
-428.57540505601
 10
-723.660717369409
 20
-428.4632307845404
 10
-723.5114681691473
 20
-428.3509035199593
 10
-723.3623555202026
 20
-428.2383963196647
 10
-723.1143029619222
 20
-428.0507920554633
 10
-722.8664128904045
 20
-427.8629718242344
 10
-722.6186602664411
 20
-427.6749689323603
 10
-722.3710200508247
 20
-427.4868166862241
 10
-722.1234672043466
 20
-427.2985483922078
 10
-721.8759766877994
 20
-427.1101973566943
 10
-721.6285234619754
 20
-426.9217968860664
 10
-721.3810824876663
 20
-426.7333802867066
 10
-721.133628725664
 20
-426.5449808649972
 10
-720.8861371367609
 20
-426.356631927321
 10
-720.6385826817495
 20
-426.1683667800609
 10
-720.3909403214213
 20
-425.980218729599
 10
-720.1431850165684
 20
-425.7922210823182
 10
-719.895291727983
 20
-425.6044071446011
 10
-719.6472354164575
 20
-425.4168102228303
 10
-719.3989910427835
 20
-425.2294636233882
 10
-719.1505335677535
 20
-425.0424006526578
 10
-718.9018379521592
 20
-424.8556546170212
 10
-718.652879156793
 20
-424.6692588228614
 10
-718.4036321424469
 20
-424.4832465765609
 10
-718.2091356847947
 20
-424.3386799165604
 10
-718.0143359521381
 20
-424.194524985755
 10
-717.8192609490172
 20
-424.0507437343418
 10
-717.623938679973
 20
-423.9072981125182
 10
-717.428397149545
 20
-423.7641500704808
 10
-717.2326643622742
 20
-423.6212615584271
 10
-717.0367683227014
 20
-423.4785945265545
 10
-716.8407370353659
 20
-423.3361109250597
 10
-716.6445985048088
 20
-423.1937727041399
 10
-716.4483807355701
 20
-423.0515418139923
 10
-716.2521117321908
 20
-422.9093802048143
 10
-716.0558194992108
 20
-422.7672498268027
 10
-715.8595320411706
 20
-422.6251126301547
 10
-715.6632773626103
 20
-422.4829305650675
 10
-715.467083468071
 20
-422.3406655817383
 10
-715.2709783620921
 20
-422.198279630364
 10
-715.0749900492151
 20
-422.0557346611422
 10
-714.8791465339795
 20
-421.9129926242695
 10
-714.6834758209261
 20
-421.7700154699433
 10
-714.4880059145953
 20
-421.6267651483608
 10
-714.1434934011912
 20
-421.3736065423075
 10
-713.7992215721588
 20
-421.120119238434
 10
-713.4551554091137
 20
-420.8663511032224
 10
-713.1112598936734
 20
-420.6123500031553
 10
-712.7675000074534
 20
-420.3581638047146
 10
-712.4238407320704
 20
-420.103840374383
 10
-712.0802470491417
 20
-419.8494275786426
 10
-711.7366839402832
 20
-419.5949732839759
 10
-711.3931163871114
 20
-419.3405253568649
 10
-711.0495093712424
 20
-419.0861316637919
 10
-710.7058278742936
 20
-418.8318400712395
 10
-710.3620368778811
 20
-418.5776984456899
 10
-710.018101363621
 20
-418.3237546536252
 10
-709.6739863131302
 20
-418.0700565615278
 10
-709.3296567080254
 20
-417.8166520358802
 10
-708.9850775299224
 20
-417.5635889431644
 10
-708.6402137604384
 20
-417.310915149863
 10
-708.2950303811895
 20
-417.058678522458
 10
-707.9494923737922
 20
-416.806926927432
 10
-707.6035647198632
 20
-416.555708231267
 10
-707.3165287934748
 20
-416.3477574883152
 10
-707.0293505622573
 20
-416.1399984025165
 10
-706.7420217832226
 20
-415.9324436071956
 10
-706.4545342133845
 20
-415.7251057356779
 10
-706.1668796097542
 20
-415.5179974212876
 10
-705.8790497293453
 20
-415.3111312973502
 10
-705.5910363291706
 20
-415.1045199971906
 10
-705.3028311662423
 20
-414.8981761541334
 10
-705.014425997573
 20
-414.6921124015037
 10
-704.7258125801754
 20
-414.4863413726263
 10
-704.4369826710627
 20
-414.2808757008264
 10
-704.1479280272468
 20
-414.0757280194287
 10
-703.8586404057407
 20
-413.8709109617581
 10
-703.5691115635572
 20
-413.6664371611395
 10
-703.2793332577087
 20
-413.4623192508981
 10
-702.9892972452078
 20
-413.2585698643584
 10
-702.6989952830675
 20
-413.0552016348457
 10
-702.4084191282998
 20
-412.8522271956847
 10
-702.117560537918
 20
-412.6496591802004
 10
-701.8264112689346
 20
-412.4475102217177
 10
-701.5133942631421
 20
-412.2306841885057
 10
-701.2002087590288
 20
-412.0140924839747
 10
-700.886842150409
 20
-411.7977555675297
 10
-700.5732818310988
 20
-411.5816938985768
 10
-700.2595151949122
 20
-411.3659279365206
 10
-699.9455296356645
 20
-411.1504781407668
 10
-699.6313125471712
 20
-410.9353649707212
 10
-699.316851323247
 20
-410.7206088857887
 10
-699.0021333577066
 20
-410.5062303453747
 10
-698.6871460443654
 20
-410.2922498088847
 10
-698.3718767770384
 20
-410.0786877357243
 10
-698.0563129495408
 20
-409.8655645852987
 10
-697.7404419556871
 20
-409.6529008170132
 10
-697.4242511892927
 20
-409.4407168902732
 10
-697.1077280441727
 20
-409.2290332644843
 10
-696.7908599141417
 20
-409.0178703990517
 10
-696.4736341930153
 20
-408.807248753381
 10
-696.1560382746079
 20
-408.5971887868773
 10
-695.838059552735
 20
-408.3877109589462
 10
-695.5196854212115
 20
-408.1788357289931
 10
-695.2130101161184
 20
-407.9783102045861
 10
-694.9060888129965
 20
-407.7781451762702
 10
-694.598909102561
 20
-407.5783637931708
 10
-694.2914585755286
 20
-407.3789892044132
 10
-693.9837248226147
 20
-407.1800445591228
 10
-693.6756954345351
 20
-406.9815530064253
 10
-693.367358002006
 20
-406.7835376954461
 10
-693.0587001157432
 20
-406.5860217753104
 10
-692.7497093664625
 20
-406.3890283951438
 10
-692.4403733448796
 20
-406.1925807040715
 10
-692.1306796417109
 20
-405.9967018512194
 10
-691.820615847672
 20
-405.8014149857125
 10
-691.5101695534786
 20
-405.6067432566764
 10
-691.1993283498466
 20
-405.4127098132364
 10
-690.8880798274924
 20
-405.2193378045182
 10
-690.5764115771312
 20
-405.0266503796469
 10
-690.2643111894795
 20
-404.8346706877483
 10
-689.9517662552527
 20
-404.6434218779474
 10
-689.6387643651669
 20
-404.4529270993701
 10
-689.325293109938
 20
-404.2632095011415
 10
-688.9952136577261
 20
-404.0643273279935
 10
-688.6648297896703
 20
-403.8659236575134
 10
-688.3341271253215
 20
-403.6680294478784
 10
-688.0030912842327
 20
-403.4706756572662
 10
-687.6717078859548
 20
-403.2738932438535
 10
-687.33996255004
 20
-403.0777131658177
 10
-687.0078408960408
 20
-402.8821663813366
 10
-686.6753285435083
 20
-402.687283848587
 10
-686.3424111119944
 20
-402.4930965257463
 10
-686.009074221051
 20
-402.2996353709917
 10
-685.6753034902307
 20
-402.1069313425007
 10
-685.3410845390846
 20
-401.9150153984504
 10
-685.0064029871648
 20
-401.7239184970181
 10
-684.6712444540233
 20
-401.5336715963811
 10
-684.3355945592118
 20
-401.3443056547168
 10
-683.999438922282
 20
-401.1558516302023
 10
-683.6627631627863
 20
-400.968340481015
 10
-683.3255529002761
 20
-400.7818031653321
 10
-682.9877937543035
 20
-400.596270641331
 10
-682.6494713444204
 20
-400.411773867189
 10
-682.3760475206558
 20
-400.2641186470515
 10
-682.1019153973884
 20
-400.1178034499507
 10
-681.8271193316431
 20
-399.9727460032467
 10
-681.5517036804451
 20
-399.8288640343009
 10
-681.275712800819
 20
-399.6860752704735
 10
-680.9991910497904
 20
-399.5442974391253
 10
-680.7221827843844
 20
-399.4034482676172
 10
-680.4447323616256
 20
-399.2634454833099
 10
-680.1668841385393
 20
-399.1242068135638
 10
-679.8886824721503
 20
-398.9856499857398
 10
-679.6101717194842
 20
-398.8476927271988
 10
-679.3313962375657
 20
-398.7102527653013
 10
-679.05240038342
 20
-398.573247827408
 10
-678.7732285140717
 20
-398.4365956408796
 10
-678.4939249865465
 20
-398.300213933077
 10
-678.2145341578689
 20
-398.1640204313607
 10
-677.9351003850645
 20
-398.0279328630915
 10
-677.6556680251579
 20
-397.8918689556301
 10
-677.3762814351744
 20
-397.7557464363371
 10
-677.0969849721389
 20
-397.6194830325734
 10
-676.8601250579126
 20
-397.5041308616317
 10
-676.6230283491301
 20
-397.3892693339974
 10
-676.3857089139103
 20
-397.2748696342373
 10
-676.1481808203732
 20
-397.1609029469184
 10
-675.9104581366375
 20
-397.0473404566072
 10
-675.672554930823
 20
-396.9341533478705
 10
-675.4344852710494
 20
-396.8213128052756
 10
-675.1962632254355
 20
-396.7087900133887
 10
-674.9579028621009
 20
-396.5965561567768
 10
-674.7194182491647
 20
-396.4845824200068
 10
-674.4808234547469
 20
-396.3728399876455
 10
-674.2421325469666
 20
-396.2613000442596
 10
-674.0033595939431
 20
-396.1499337744159
 10
-673.7645186637955
 20
-396.0387123626812
 10
-673.5256238246437
 20
-395.9276069936224
 10
-673.2866891446067
 20
-395.816588851806
 10
-673.0477286918044
 20
-395.7056291217992
 10
-672.8087565343557
 20
-395.5946989881685
 10
-672.5697867403801
 20
-395.4837696354808
 10
-672.330833377997
 20
-395.372812248303
 10
-672.1068497365058
 20
-395.268613133193
 10
-671.8829641850533
 20
-395.1641814338689
 10
-671.6591483851737
 20
-395.059582127785
 10
-671.4353739984024
 20
-394.9548801923962
 10
-671.2116126862734
 20
-394.8501406051564
 10
-670.9878361103216
 20
-394.7454283435203
 10
-670.7640159320823
 20
-394.6408083849428
 10
-670.5401238130896
 20
-394.536345706878
 10
-670.3161314148782
 20
-394.4321052867804
 10
-670.0920103989828
 20
-394.3281521021043
 10
-669.8677324269386
 20
-394.2245511303047
 10
-669.6432691602798
 20
-394.1213673488358
 10
-669.4185922605411
 20
-394.0186657351521
 10
-669.1936733892574
 20
-393.916511266708
 10
-668.9684842079635
 20
-393.8149689209581
 10
-668.7429963781935
 20
-393.7141036753569
 10
-668.5171815614831
 20
-393.6139805073589
 10
-668.2910114193661
 20
-393.5146643944183
 10
-668.0644576133777
 20
-393.4162203139901
 10
-667.8374918050524
 20
-393.3187132435284
 10
-667.613482334337
 20
-393.2233299395093
 10
-667.3892568648341
 20
-393.1284250181457
 10
-667.1648117055902
 20
-393.0340155292154
 10
-666.9401431656538
 20
-392.9401185224964
 10
-666.7152475540713
 20
-392.8467510477661
 10
-666.4901211798908
 20
-392.7539301548023
 10
-666.2647603521601
 20
-392.6616728933832
 10
-666.0391613799262
 20
-392.5699963132861
 10
-665.8133205722365
 20
-392.4789174642889
 10
-665.5872342381386
 20
-392.3884533961692
 10
-665.3608986866805
 20
-392.2986211587051
 10
-665.134310226909
 20
-392.2094378016741
 10
-664.9074651678716
 20
-392.120920374854
 10
-664.6803598186159
 20
-392.0330859280225
 10
-664.4529904881897
 20
-391.9459515109576
 10
-664.22535348564
 20
-391.8595341734367
 10
-663.9974451200147
 20
-391.7738509652379
 10
-663.7692617003609
 20
-391.6889189361387
 10
-663.5407995357264
 20
-391.604755135917
 10
-663.3120549351584
 20
-391.5213766143506
 10
-663.0094101784485
 20
-391.4121943827063
 10
-662.7064345525235
 20
-391.3039372664445
 10
-662.4031435432294
 20
-391.1965647161838
 10
-662.0995526364129
 20
-391.0900361825433
 10
-661.7956773179193
 20
-390.9843111161414
 10
-661.4915330735954
 20
-390.8793489675974
 10
-661.1871353892875
 20
-390.7751091875298
 10
-660.8824997508416
 20
-390.6715512265577
 10
-660.5776416441036
 20
-390.5686345352995
 10
-660.2725765549197
 20
-390.4663185643742
 10
-659.9673199691368
 20
-390.3645627644009
 10
-659.6618873726005
 20
-390.2633265859982
 10
-659.356294251157
 20
-390.1625694797848
 10
-659.0505560906524
 20
-390.0622508963797
 10
-658.7446883769335
 20
-389.9623302864017
 10
-658.4387065958458
 20
-389.8627671004695
 10
-658.1326262332359
 20
-389.7635207892021
 10
-657.8264627749496
 20
-389.664550803218
 10
-657.5202317068334
 20
-389.5658165931363
 10
-657.2139485147336
 20
-389.4672776095759
 10
-656.9360543349331
 20
-389.377921704579
 10
-656.6581432224574
 20
-389.2885511757437
 10
-656.380194580056
 20
-389.1992439580619
 10
-656.1021878104799
 20
-389.1100779865258
 10
-655.8241023164782
 20
-389.021131196127
 10
-655.5459175008015
 20
-388.9324815218579
 10
-655.2676127662
 20
-388.8442068987108
 10
-654.9891675154238
 20
-388.7563852616772
 10
-654.7105611512226
 20
-388.6690945457494
 10
-654.4317730763465
 20
-388.5824126859194
 10
-654.1527826935462
 20
-388.4964176171794
 10
-653.8735694055715
 20
-388.411187274521
 10
-653.5941126151722
 20
-388.3267995929367
 10
-653.3143917250985
 20
-388.2433325074182
 10
-653.0343861381009
 20
-388.1608639529579
 10
-652.7540752569289
 20
-388.0794718645474
 10
-652.4734384843332
 20
-387.9992341771791
 10
-652.1924552230632
 20
-387.9202288258448
 10
-651.9111048758698
 20
-387.8425337455368
 10
-651.6293668455024
 20
-387.7662268712468
 10
-651.3122908561053
 20
-387.6817319539149
 10
-650.9949490730281
 20
-387.5981893650635
 10
-650.6773459317917
 20
-387.5155995230947
 10
-650.3594858679181
 20
-387.4339628464112
 10
-650.0413733169277
 20
-387.3532797534151
 10
-649.7230127143418
 20
-387.2735506625089
 10
-649.4044084956824
 20
-387.1947759920953
 10
-649.0855650964702
 20
-387.1169561605764
 10
-648.7664869522262
 20
-387.0400915863545
 10
-648.4471784984718
 20
-386.9641826878322
 10
-648.1276441707286
 20
-386.8892298834121
 10
-647.8078884045174
 20
-386.8152335914962
 10
-647.4879156353595
 20
-386.7421942304871
 10
-647.1677302987762
 20
-386.6701122187872
 10
-646.8473368302888
 20
-386.598987974799
 10
-646.5267396654182
 20
-386.5288219169246
 10
-646.2059432396861
 20
-386.4596144635668
 10
-645.8849519886132
 20
-386.3913660331276
 10
-645.5637703477213
 20
-386.3240770440097
 10
-645.2424027525312
 20
-386.2577479146154
 10
-644.9836678378418
 20
-386.2055709046849
 10
-644.7246442764572
 20
-386.1549134883541
 10
-644.4653514361296
 20
-386.1056776343919
 10
-644.2058086846126
 20
-386.0577653115681
 10
-643.9460353896583
 20
-386.0110784886517
 10
-643.6860509190202
 20
-385.9655191344123
 10
-643.425874640451
 20
-385.9209892176194
 10
-643.1655259217032
 20
-385.877390707042
 10
-642.90502413053
 20
-385.8346255714495
 10
-642.6443886346839
 20
-385.7925957796113
 10
-642.3836388019182
 20
-385.751203300297
 10
-642.1227939999856
 20
-385.7103501022756
 10
-641.8618735966386
 20
-385.6699381543166
 10
-641.6008969596303
 20
-385.6298694251893
 10
-641.3398834567138
 20
-385.5900458836633
 10
-641.0788524556415
 20
-385.5503694985075
 10
-640.8178233241665
 20
-385.5107422384917
 10
-640.5568154300415
 20
-385.4710660723849
 10
-640.2958481410194
 20
-385.4312429689566
 10
-640.0349408248533
 20
-385.3911748969762
 10
-639.7545418299017
 20
-385.3481185674476
 10
-639.4740893410532
 20
-385.3054058540047
 10
-639.1935846449501
 20
-385.2630310172706
 10
-638.9130290282368
 20
-385.220988317869
 10
-638.6324237775556
 20
-385.1792720164226
 10
-638.3517701795502
 20
-385.1378763735551
 10
-638.0710695208642
 20
-385.0967956498898
 10
-637.7903230881404
 20
-385.05602410605
 10
-637.5095321680222
 20
-385.0155560026588
 10
-637.2286980471529
 20
-384.9753856003396
 10
-636.9478220121758
 20
-384.9355071597159
 10
-636.6669053497344
 20
-384.8959149414108
 10
-636.3859493464715
 20
-384.8566032060476
 10
-636.1049552890306
 20
-384.8175662142495
 10
-635.8239244640553
 20
-384.7787982266401
 10
-635.5428581581883
 20
-384.7402935038424
 10
-635.2617576580734
 20
-384.7020463064799
 10
-634.9806242503535
 20
-384.6640508951758
 10
-634.6994592216721
 20
-384.6263015305534
 10
-634.4182638586725
 20
-384.5887924732361
 10
-634.1201388297039
 20
-384.5490053171674
 10
-633.8220293162002
 20
-384.5089859464027
 10
-633.5239263948349
 20
-384.4688235469802
 10
-633.2258211422826
 20
-384.4286073049384
 10
-632.927704635217
 20
-384.3884264063157
 10
-632.6295679503121
 20
-384.3483700371505
 10
-632.3314021642427
 20
-384.3085273834814
 10
-632.0331983536825
 20
-384.2689876313466
 10
-631.7349475953054
 20
-384.2298399667846
 10
-631.4366409657855
 20
-384.1911735758337
 10
-631.1382695417974
 20
-384.1530776445326
 10
-630.8398244000148
 20
-384.1156413589196
 10
-630.5412966171117
 20
-384.078953905033
 10
-630.2426772697625
 20
-384.0431044689112
 10
-629.9439574346413
 20
-384.0081822365928
 10
-629.6451281884218
 20
-383.9742763941161
 10
-629.3461806077786
 20
-383.9414761275196
 10
-629.0471057693854
 20
-383.9098706228417
 10
-628.7478947499166
 20
-383.8795490661207
 10
-628.4485386260462
 20
-383.8506006433951
 10
-628.1859826499444
 20
-383.8263648433379
 10
-627.923330147368
 20
-383.8031418138797
 10
-627.6605862330998
 20
-383.7809064117026
 10
-627.3977560219233
 20
-383.7596334934893
 10
-627.1348446286205
 20
-383.7392979159219
 10
-626.8718571679746
 20
-383.7198745356827
 10
-626.6087987547687
 20
-383.7013382094541
 10
-626.3456745037854
 20
-383.6836637939185
 10
-626.0824895298076
 20
-383.666826145758
 10
-625.8192489476179
 20
-383.6508001216549
 10
-625.5559578719999
 20
-383.6355605782919
 10
-625.2926214177356
 20
-383.6210823723509
 10
-625.0292446996084
 20
-383.6073403605144
 10
-624.7658328324007
 20
-383.5943093994647
 10
-624.502390930896
 20
-383.5819643458842
 10
-624.2389241098765
 20
-383.570280056455
 10
-623.9754374841257
 20
-383.5592313878597
 10
-623.7119361684257
 20
-383.5487931967803
 10
-623.44842527756
 20
-383.5389403398995
 10
-623.1849099263111
 20
-383.5296476738992
 10
-622.8388362433445
 20
-383.5182580026741
 10
-622.4927340951068
 20
-383.5077601015354
 10
-622.1466055182156
 20
-383.4981206996209
 10
-621.800452549291
 20
-383.4893065260687
 10
-621.4542772249509
 20
-383.4812843100165
 10
-621.1080815818145
 20
-383.4740207806024
 10
-620.7618676565012
 20
-383.4674826669644
 10
-620.4156374856293
 20
-383.4616366982403
 10
-620.0693931058177
 20
-383.4564496035681
 10
-619.7231365536852
 20
-383.4518881120858
 10
-619.376869865851
 20
-383.4479189529313
 10
-619.0305950789337
 20
-383.4445088552425
 10
-618.6843142295523
 20
-383.4416245481573
 10
-618.3380293543255
 20
-383.4392327608136
 10
-617.9917424898726
 20
-383.4373002223496
 10
-617.6454556728117
 20
-383.435793661903
 10
-617.2991709397627
 20
-383.4346798086119
 10
-616.9528903273433
 20
-383.433925391614
 10
-616.6066158721733
 20
-383.4334971400476
 10
-616.2603496108712
 20
-383.4333617830503
 10
-615.9762640942866
 20
-383.4336173378032
 10
-615.6921766049393
 20
-383.434380877846
 10
-615.4080882108959
 20
-383.4356477168545
 10
-615.1239999802241
 20
-383.4374131685052
 10
-614.8399129809903
 20
-383.4396725464737
 10
-614.5558282812624
 20
-383.4424211644363
 10
-614.2717469491075
 20
-383.4456543360694
 10
-613.9876700525928
 20
-383.4493673750486
 10
-613.703598659785
 20
-383.4535555950501
 10
-613.4195338387516
 20
-383.45821430975
 10
-613.13547665756
 20
-383.4633388328245
 10
-612.8514281842772
 20
-383.4689244779496
 10
-612.5673894869702
 20
-383.4749665588013
 10
-612.2833616337064
 20
-383.4814603890556
 10
-611.9993456925529
 20
-383.4884012823888
 10
-611.7153427315768
 20
-383.4957845524768
 10
-611.4313538188455
 20
-383.5036055129959
 10
-611.147380022426
 20
-383.5118594776218
 10
-610.8634224103855
 20
-383.5205417600309
 10
-610.5794820507913
 20
-383.5296476738992
 10
-610.3253493319986
 20
-383.5382606678243
 10
-610.0712344203164
 20
-383.5474118225435
 10
-609.8171374826588
 20
-383.5570855695887
 10
-609.5630586859419
 20
-383.5672663404915
 10
-609.3089981970796
 20
-383.5779385667837
 10
-609.0549561829877
 20
-383.5890866799971
 10
-608.8009328105812
 20
-383.6006951116636
 10
-608.5469282467751
 20
-383.6127482933148
 10
-608.292942658484
 20
-383.6252306564824
 10
-608.0389762126233
 20
-383.6381266326982
 10
-607.7850290761081
 20
-383.6514206534941
 10
-607.5311014158534
 20
-383.6650971504017
 10
-607.2771933987742
 20
-383.6791405549528
 10
-607.0233051917853
 20
-383.6935352986791
 10
-606.7694369618022
 20
-383.7082658131125
 10
-606.5155888757395
 20
-383.7233165297845
 10
-606.2617611005126
 20
-383.7386718802272
 10
-606.0079538030361
 20
-383.7543162959721
 10
-605.7541671502254
 20
-383.7702342085511
 10
-605.5004013089956
 20
-383.7864100494959
 10
-605.2044834884359
 20
-383.8055071447196
 10
-604.9085728331017
 20
-383.8248000348943
 10
-604.6126723575151
 20
-383.8443152035395
 10
-604.3167850761997
 20
-383.8640791341747
 10
-604.0209140036774
 20
-383.8841183103189
 10
-603.7250621544713
 20
-383.9044592154918
 10
-603.4292325431043
 20
-383.925128333213
 10
-603.1334281840988
 20
-383.9461521470017
 10
-602.8376520919776
 20
-383.9675571403772
 10
-602.5419072812633
 20
-383.9893697968588
 10
-602.2461967664792
 20
-384.0116165999663
 10
-601.9505235621475
 20
-384.0343240332189
 10
-601.6548906827909
 20
-384.0575185801359
 10
-601.3593011429322
 20
-384.0812267242368
 10
-601.0637579570944
 20
-384.1054749490411
 10
-600.7682641397996
 20
-384.1302897380679
 10
-600.4728227055714
 20
-384.1556975748369
 10
-600.1774366689317
 20
-384.1817249428673
 10
-599.8821090444037
 20
-384.2083983256788
 10
-599.5868428465101
 20
-384.2357442067905
 10
-599.300282066382
 20
-384.2629110674139
 10
-599.0137729095021
 20
-384.2906464536659
 10
-598.7273157447336
 20
-384.3189420750703
 10
-598.4409109409406
 20
-384.3477896411511
 10
-598.1545588669865
 20
-384.3771808614314
 10
-597.8682598917354
 20
-384.4071074454354
 10
-597.5820143840511
 20
-384.4375611026871
 10
-597.2958227127972
 20
-384.4685335427099
 10
-597.0096852468372
 20
-384.5000164750276
 10
-596.7236023550352
 20
-384.5320016091638
 10
-596.4375744062548
 20
-384.5644806546428
 10
-596.1516017693599
 20
-384.5974453209878
 10
-595.8656848132139
 20
-384.6308873177229
 10
-595.5798239066808
 20
-384.6647983543716
 10
-595.2940194186244
 20
-384.6991701404578
 10
-595.0082717179082
 20
-384.7339943855052
 10
-594.7225811733963
 20
-384.7692627990377
 10
-594.4369481539519
 20
-384.8049670905788
 10
-594.1513730284394
 20
-384.8410989696525
 10
-593.8658561657221
 20
-384.8776501457825
 10
-593.5904668037114
 20
-384.9135936575453
 10
-593.3152017886539
 20
-384.9504400670523
 10
-593.0400504553887
 20
-384.9881121476516
 10
-592.7650021387559
 20
-385.0265326726919
 10
-592.4900461735945
 20
-385.065624415521
 10
-592.2151718947439
 20
-385.1053101494878
 10
-591.940368637044
 20
-385.1455126479402
 10
-591.6656257353338
 20
-385.1861546842269
 10
-591.390932524453
 20
-385.227159031696
 10
-591.1162783392408
 20
-385.2684484636957
 10
-590.841652514537
 20
-385.3099457535749
 10
-590.5670443851809
 20
-385.3515736746814
 10
-590.2924432860118
 20
-385.3932550003636
 10
-590.0178385518692
 20
-385.4349125039701
 10
-589.7432195175928
 20
-385.476468958849
 10
-589.4685755180218
 20
-385.5178471383487
 10
-589.1938958879957
 20
-385.5589698158176
 10
-588.919169962354
 20
-385.599759764604
 10
-588.644387075936
 20
-385.6401397580561
 10
-588.3695365635815
 20
-385.6800325695226
 10
-587.88730840664
 20
-385.7490863222627
 10
-587.4049586770951
 20
-385.817335177022
 10
-586.922507572491
 20
-385.8849124261953
 10
-586.439975290373
 20
-385.9519513621781
 10
-585.9573820282856
 20
-386.0185852773648
 10
-585.474747983774
 20
-386.0849474641511
 10
-584.992093354383
 20
-386.151171214932
 10
-584.5094383376576
 20
-386.2173898221025
 10
-584.0268031311423
 20
-386.2837365780577
 10
-583.544207932382
 20
-386.3503447751926
 10
-583.061672938922
 20
-386.4173477059026
 10
-582.5792183483069
 20
-386.4848786625827
 10
-582.0968643580813
 20
-386.5530709376278
 10
-581.6146311657903
 20
-386.622057823433
 10
-581.1325389689789
 20
-386.6919726123938
 10
-580.6506079651917
 20
-386.7629485969048
 10
-580.1688583519738
 20
-386.8351190693616
 10
-579.6873103268698
 20
-386.9086173221587
 10
-579.2059840874248
 20
-386.9835766476917
 10
-578.7248998311836
 20
-387.0601303383556
 10
-578.2284552987064
 20
-387.1403444849028
 10
-577.7321051884625
 20
-387.2212182175204
 10
-577.2358578787998
 20
-387.3027827967766
 10
-576.7397217480675
 20
-387.38506948324
 10
-576.2437051746133
 20
-387.4681095374787
 10
-575.747816536786
 20
-387.551934220061
 10
-575.2520642129344
 20
-387.6365747915556
 10
-574.7564565814068
 20
-387.7220625125306
 10
-574.2610020205515
 20
-387.8084286435543
 10
-573.7657089087168
 20
-387.8957044451951
 10
-573.2705856242519
 20
-387.9839211780215
 10
-572.7756405455048
 20
-388.0731101026018
 10
-572.280882050824
 20
-388.1633024795042
 10
-571.7863185185579
 20
-388.2545295692971
 10
-571.2919583270555
 20
-388.346822632549
 10
-570.7978098546644
 20
-388.440212929828
 10
-570.303881479734
 20
-388.5347317217027
 10
-569.8101815806122
 20
-388.6304102687413
 10
-569.3167185356476
 20
-388.7272798315122
 10
-568.8235007231889
 20
-388.8253716705837
 10
-568.4828227655781
 20
-388.8944359079822
 10
-568.1424813982082
 20
-388.9650913809934
 10
-567.8024568836685
 20
-389.0372407650866
 10
-567.4627294845486
 20
-389.1107867357322
 10
-567.1232794634376
 20
-389.1856319683995
 10
-566.7840870829255
 20
-389.2616791385585
 10
-566.4451326056018
 20
-389.338830921679
 10
-566.1063962940556
 20
-389.4169899932307
 10
-565.7678584108766
 20
-389.4960590286834
 10
-565.4294992186541
 20
-389.5759407035067
 10
-565.0912989799781
 20
-389.6565376931708
 10
-564.7532379574378
 20
-389.7377526731451
 10
-564.4152964136225
 20
-389.8194883188996
 10
-564.0774546111219
 20
-389.9016473059039
 10
-563.7396928125256
 20
-389.9841323096279
 10
-563.4019912804229
 20
-390.0668460055413
 10
-563.0643302774033
 20
-390.1496910691141
 10
-562.7266900660563
 20
-390.2325701758157
 10
-562.3890509089717
 20
-390.3153860011162
 10
-562.0513930687387
 20
-390.3980412204853
 10
-561.7391853558282
 20
-390.4747613169299
 10
-561.4271583872228
 20
-390.5522013173776
 10
-561.1152975359323
 20
-390.630302959686
 10
-560.8035881749681
 20
-390.7090079817135
 10
-560.4920156773404
 20
-390.7882581213174
 10
-560.1805654160597
 20
-390.867995116356
 10
-559.869222764137
 20
-390.9481607046873
 10
-559.5579730945826
 20
-391.028696624169
 10
-559.246801780407
 20
-391.109544612659
 10
-558.9356941946209
 20
-391.1906464080152
 10
-558.6246357102351
 20
-391.2719437480959
 10
-558.3136117002599
 20
-391.3533783707585
 10
-558.0026075377061
 20
-391.4348920138611
 10
-557.6916085955841
 20
-391.5164264152618
 10
-557.3806002469047
 20
-391.5979233128182
 10
-557.0695678646782
 20
-391.6793244443884
 10
-556.7584968219155
 20
-391.7605715478305
 10
-556.447372491627
 20
-391.8416063610019
 10
-556.1361802468235
 20
-391.922370621761
 10
-555.8249054605154
 20
-392.0028060679655
 10
-555.414026456015
 20
-392.1084957204533
 10
-555.0030477150749
 20
-392.2138071264191
 10
-554.5919868990936
 20
-392.318807271291
 10
-554.18086166947
 20
-392.4235631404975
 10
-553.7696896876024
 20
-392.5281417194662
 10
-553.3584886148897
 20
-392.6326099936256
 10
-552.9472761127307
 20
-392.737034948404
 10
-552.5360698425238
 20
-392.8414835692294
 10
-552.1248874656676
 20
-392.9460228415296
 10
-551.7137466435607
 20
-393.0507197507331
 10
-551.3026650376022
 20
-393.1556412822682
 10
-550.8916603091905
 20
-393.2608544215626
 10
-550.480750119724
 20
-393.3664261540448
 10
-550.0699521306016
 20
-393.4724234651427
 10
-549.659284003222
 20
-393.5789133402848
 10
-549.2487633989836
 20
-393.6859627648988
 10
-548.8384079792853
 20
-393.7936387244132
 10
-548.4282354055256
 20
-393.9020082042559
 10
-548.0182633391032
 20
-394.0111381898553
 10
-547.6085094414168
 20
-394.1210956666393
 10
-547.1845502316486
 20
-394.2358367984
 10
-546.7608280051124
 20
-394.3514385589327
 10
-546.33732262728
 20
-394.4678278867213
 10
-545.9140139636233
 20
-394.5849317202499
 10
-545.4908818796141
 20
-394.7026769980023
 10
-545.0679062407243
 20
-394.8209906584626
 10
-544.645066912426
 20
-394.939799640115
 10
-544.222343760191
 20
-395.0590308814433
 10
-543.7997166494911
 20
-395.1786113209314
 10
-543.377165445798
 20
-395.2984678970635
 10
-542.9546700145842
 20
-395.4185275483236
 10
-542.5322102213211
 20
-395.5387172131956
 10
-542.1097659314804
 20
-395.6589638301634
 10
-541.6873170105343
 20
-395.7791943377113
 10
-541.264843323955
 20
-395.8993356743231
 10
-540.8423247372137
 20
-396.0193147784827
 10
-540.4197411157829
 20
-396.1390585886744
 10
-539.997072325134
 20
-396.2584940433819
 10
-539.5742982307393
 20
-396.3775480810895
 10
-539.1513986980704
 20
-396.4961476402809
 10
-538.759873536447
 20
-396.6054106789139
 10
-538.3682119685309
 20
-396.7141939647748
 10
-537.9764360714902
 20
-396.8225750175533
 10
-537.5845679224943
 20
-396.9306313569397
 10
-537.1926295987115
 20
-397.0384405026236
 10
-536.8006431773108
 20
-397.1460799742956
 10
-536.4086307354615
 20
-397.2536272916455
 10
-536.0166143503319
 20
-397.3611599743634
 10
-535.6246160990906
 20
-397.4687555421392
 10
-535.2326580589068
 20
-397.576491514663
 10
-534.8407623069495
 20
-397.6844454116251
 10
-534.4489509203871
 20
-397.7926947527151
 10
-534.0572459763885
 20
-397.9013170576234
 10
-533.6656695521226
 20
-398.0103898460399
 10
-533.2742437247582
 20
-398.1199906376547
 10
-532.882990571464
 20
-398.2301969521577
 10
-532.4919321694092
 20
-398.3410863092392
 10
-532.101090595762
 20
-398.4527362285889
 10
-531.7104879276917
 20
-398.5652242298972
 10
-531.320146242367
 20
-398.678627832854
 10
-531.0395884037556
 20
-398.7608779668712
 10
-530.7592232611461
 20
-398.8437790303207
 10
-530.479042010032
 20
-398.927299853696
 10
-530.1990358459071
 20
-399.011409267491
 10
-529.9191959642644
 20
-399.0960761021992
 10
-529.6395135605978
 20
-399.1812691883143
 10
-529.3599798304011
 20
-399.2669573563304
 10
-529.0805859691675
 20
-399.3531094367408
 10
-528.8013231723904
 20
-399.4396942600392
 10
-528.5221826355635
 20
-399.5266806567193
 10
-528.2431555541805
 20
-399.6140374572751
 10
-527.9642331237347
 20
-399.7017334922
 10
-527.6854065397198
 20
-399.7897375919878
 10
-527.4066669976293
 20
-399.878018587132
 10
-527.1280056929567
 20
-399.9665453081267
 10
-526.8494138211954
 20
-400.0552865854652
 10
-526.5708825778393
 20
-400.1442112496414
 10
-526.2924031583815
 20
-400.2332881311488
 10
-526.0139667583159
 20
-400.3224860604814
 10
-525.7355645731359
 20
-400.4117738681327
 10
-525.4137919126288
 20
-400.5151726826684
 10
-525.0921090587717
 20
-400.6188531807728
 10
-524.7705154243334
 20
-400.7228125496646
 10
-524.4490104220835
 20
-400.8270479765637
 10
-524.1275934647904
 20
-400.9315566486887
 10
-523.8062639652235
 20
-401.0363357532593
 10
-523.4850213361522
 20
-401.1413824774947
 10
-523.1638649903449
 20
-401.2466940086141
 10
-522.8427943405711
 20
-401.3522675338367
 10
-522.5218087995995
 20
-401.4581002403817
 10
-522.2009077801998
 20
-401.5641893154686
 10
-521.8800906951406
 20
-401.6705319463165
 10
-521.5593569571909
 20
-401.7771253201446
 10
-521.2387059791199
 20
-401.8839666241722
 10
-520.9181371736969
 20
-401.9910530456187
 10
-520.5976499536905
 20
-402.0983817717031
 10
-520.2772437318703
 20
-402.2059499896449
 10
-519.9569179210048
 20
-402.3137548866632
 10
-519.6366719338635
 20
-402.4217936499772
 10
-519.3165051832152
 20
-402.5300634668064
 10
-519.0489320324214
 20
-402.6208686169782
 10
-518.7814850341
 20
-402.7120426425071
 10
-518.5141568645053
 20
-402.8035639099734
 10
-518.246940199893
 20
-402.8954107859574
 10
-517.9798277165174
 20
-402.9875616370391
 10
-517.7128120906341
 20
-403.0799948297989
 10
-517.4458859984979
 20
-403.1726887308172
 10
-517.1790421163639
 20
-403.2656217066741
 10
-516.9122731204869
 20
-403.3587721239496
 10
-516.6455716871218
 20
-403.4521183492242
 10
-516.3789304925241
 20
-403.5456387490782
 10
-516.1123422129484
 20
-403.6393116900916
 10
-515.8457995246498
 20
-403.7331155388448
 10
-515.5792951038832
 20
-403.8270286619178
 10
-515.312821626904
 20
-403.9210294258912
 10
-515.0463717699665
 20
-404.0150961973449
 10
-514.7799382093265
 20
-404.1092073428594
 10
-514.5135136212384
 20
-404.2033412290147
 10
-514.2470906819574
 20
-404.2974762223911
 10
-513.9806620677386
 20
-404.391590689569
 10
-513.6337149556225
 20
-404.5142615797232
 10
-513.286850046123
 20
-404.6371640391545
 10
-512.9400592160855
 20
-404.760275192336
 10
-512.5933343423562
 20
-404.8835721637411
 10
-512.24666730178
 20
-405.0070320778425
 10
-511.9000499712032
 20
-405.1306320591136
 10
-511.5534742274715
 20
-405.2543492320276
 10
-511.2069319474302
 20
-405.3781607210577
 10
-510.8604150079252
 20
-405.5020436506767
 10
-510.5139152858019
 20
-405.625975145358
 10
-510.1674246579065
 20
-405.7499323295747
 10
-509.8209350010843
 20
-405.8738923278001
 10
-509.4744381921809
 20
-405.9978322645071
 10
-509.1279261080421
 20
-406.1217292641689
 10
-508.7813906255137
 20
-406.2455604512589
 10
-508.4348236214411
 20
-406.3693029502499
 10
-508.0882169726704
 20
-406.4929338856153
 10
-507.7415625560467
 20
-406.616430381828
 10
-507.3948522484161
 20
-406.7397695633614
 10
-507.0480779266242
 20
-406.8629285546885
 10
-506.7480968423492
 20
-406.9691556357348
 10
-506.4479902349639
 20
-407.0750314803662
 10
-506.147777096176
 20
-407.1806091437545
 10
-505.8474764176934
 20
-407.2859416810729
 10
-505.5471071912237
 20
-407.3910821474933
 10
-505.2466884084749
 20
-407.4960835981885
 10
-504.9462390611549
 20
-407.600999088331
 10
-504.6457781409713
 20
-407.7058816730932
 10
-504.3453246396318
 20
-407.8107844076476
 10
-504.0448975488443
 20
-407.9157603471666
 10
-503.7445158603168
 20
-408.0208625468229
 10
-503.4441985657569
 20
-408.1261440617888
 10
-503.1439646568725
 20
-408.2316579472368
 10
-502.8438331253712
 20
-408.3374572583395
 10
-502.543822962961
 20
-408.4435950502694
 10
-502.2439531613495
 20
-408.5501243781987
 10
-501.9442427122449
 20
-408.6570982973003
 10
-501.6447106073544
 20
-408.7645698627464
 10
-501.3453758383864
 20
-408.8725921297095
 10
-501.0462573970482
 20
-408.9812181533622
 10
-500.7419092584395
 20
-409.0923278762021
 10
-500.4376978590627
 20
-409.2038120195573
 10
-500.1336187876847
 20
-409.3156578042422
 10
-499.8296676330731
 20
-409.4278524510719
 10
-499.5258399839949
 20
-409.5403831808605
 10
-499.2221314292175
 20
-409.6532372144231
 10
-498.9185375575083
 20
-409.7664017725745
 10
-498.6150539576343
 20
-409.879864076129
 10
-498.3116762183627
 20
-409.9936113459015
 10
-498.0083999284607
 20
-410.1076308027065
 10
-497.7052206766959
 20
-410.2219096673591
 10
-497.4021340518354
 20
-410.3364351606736
 10
-497.0991356426463
 20
-410.4511945034648
 10
-496.7962210378959
 20
-410.5661749165473
 10
-496.4933858263516
 20
-410.681363620736
 10
-496.1906255967804
 20
-410.7967478368454
 10
-495.8879359379499
 20
-410.9123147856903
 10
-495.5853124386268
 20
-411.0280516880852
 10
-495.2827506875789
 20
-411.1439457648449
 10
-494.9802462735732
 20
-411.2599842367842
 10
-494.6765624127914
 20
-411.3767158985048
 10
-494.3729845684405
 20
-411.4937230509396
 10
-494.0695088342025
 20
-411.610995234003
 10
-493.7661313037602
 20
-411.7285219876099
 10
-493.4628480707955
 20
-411.8462928516743
 10
-493.1596552289911
 20
-411.9642973661112
 10
-492.8565488720296
 20
-412.0825250708351
 10
-492.5535250935931
 20
-412.2009655057606
 10
-492.2505799873638
 20
-412.319608210802
 10
-491.9477096470241
 20
-412.438442725874
 10
-491.6449101662569
 20
-412.5574585908913
 10
-491.3421776387441
 20
-412.6766453457683
 10
-491.0395081581681
 20
-412.7959925304196
 10
-490.7368978182113
 20
-412.9154896847597
 10
-490.4343427125564
 20
-413.0351263487033
 10
-490.1318389348852
 20
-413.1548920621648
 10
-489.8293825788806
 20
-413.274776365059
 10
-489.5269697382246
 20
-413.3947687973002
 10
-489.2245965065998
 20
-413.5148588988031
 10
-488.9222589776886
 20
-413.6350362094822
 10
-488.4741691643687
 20
-413.8138781809469
 10
-488.0264861554699
 20
-413.9937569430741
 10
-487.5791484734282
 20
-414.1745153411293
 10
-487.1320946406805
 20
-414.355996220379
 10
-486.6852631796626
 20
-414.5380424260887
 10
-486.2385926128112
 20
-414.7204968035247
 10
-485.7920214625629
 20
-414.903202197953
 10
-485.3454882513538
 20
-415.0860014546395
 10
-484.8989315016203
 20
-415.26873741885
 10
-484.4522897357986
 20
-415.4512529358508
 10
-484.0055014763256
 20
-415.633390850908
 10
-483.5585052456373
 20
-415.8149940092871
 10
-483.1112395661702
 20
-415.9959052562545
 10
-482.6636429603606
 20
-416.175967437076
 10
-482.2156539506449
 20
-416.3550233970177
 10
-481.7672110594596
 20
-416.5329159813454
 10
-481.318252809241
 20
-416.7094880353254
 10
-480.8687177224254
 20
-416.8845824042234
 10
-480.4185443214493
 20
-417.0580419333056
 10
-479.9676711287491
 20
-417.2297094678378
 10
-479.5149634901421
 20
-417.4000947281732
 10
-479.061706525128
 20
-417.5689902549565
 10
-478.6079383569132
 20
-417.7364986527139
 10
-478.1536971087054
 20
-417.9027225259722
 10
-477.6990209037104
 20
-418.0677644792572
 10
-477.2439478651358
 20
-418.2317271170959
 10
-476.7885161161885
 20
-418.3947130440146
 10
-476.3327637800751
 20
-418.5568248645396
 10
-475.8767289800024
 20
-418.7181651831972
 10
-475.4204498391773
 20
-418.8788366045139
 10
-474.963964480807
 20
-419.0389417330164
 10
-474.5073110280981
 20
-419.1985831732308
 10
-474.0505276042574
 20
-419.3578635296836
 10
-473.5936523324918
 20
-419.5168854069012
 10
-473.1367233360083
 20
-419.6757514094102
 10
-472.6797787380137
 20
-419.8345641417366
 10
-472.2228566617149
 20
-419.9934262084073
 10
-471.7659952303187
 20
-420.1524402139484
 10
-471.309232567032
 20
-420.3117087628864
 10
-470.8526067950616
 20
-420.4713344597478
 10
-470.5436696935136
 20
-420.5795195775758
 10
-470.2347329686733
 20
-420.6877223263517
 10
-469.9257828294398
 20
-420.7958999318311
 10
-469.616805484713
 20
-420.9040096197709
 10
-469.3077871433915
 20
-421.0120086159266
 10
-468.9987140143749
 20
-421.1198541460548
 10
-468.6895723065629
 20
-421.2275034359117
 10
-468.3803482288545
 20
-421.3349137112534
 10
-468.0710279901489
 20
-421.442042197836
 10
-467.7615977993454
 20
-421.5488461214157
 10
-467.4520438653438
 20
-421.6552827077489
 10
-467.1423523970431
 20
-421.7613091825918
 10
-466.8325096033424
 20
-421.8668827717003
 10
-466.5225016931413
 20
-421.9719607008307
 10
-466.2123148753392
 20
-422.0765001957394
 10
-465.9019353588353
 20
-422.1804584821824
 10
-465.5913493525289
 20
-422.2837927859159
 10
-465.2805430653193
 20
-422.3864603326962
 10
-464.9695027061059
 20
-422.4884183482794
 10
-464.6582144837881
 20
-422.5896240584216
 10
-464.3846121029042
 20
-422.6782884120606
 10
-464.1110060472757
 20
-422.7670568792756
 10
-463.8373685997035
 20
-422.8558205888288
 10
-463.5636720429889
 20
-422.9444706694831
 10
-463.2898886599328
 20
-423.0328982500004
 10
-463.0159907333364
 20
-423.1209944591433
 10
-462.7419505460012
 20
-423.2086504256746
 10
-462.4677403807279
 20
-423.2957572783563
 10
-462.1933325203175
 20
-423.3822061459508
 10
-461.9186992475713
 20
-423.4678881572207
 10
-461.6438128452908
 20
-423.5526944409286
 10
-461.3686455962766
 20
-423.6365161258367
 10
-461.0931697833299
 20
-423.7192443407074
 10
-460.8173576892518
 20
-423.8007702143032
 10
-460.5411815968438
 20
-423.8809848753865
 10
-460.2646137889064
 20
-423.9597794527197
 10
-459.9876265482413
 20
-424.0370450750654
 10
-459.7101921576491
 20
-424.1126728711859
 10
-459.4322828999314
 20
-424.1865539698436
 10
-459.153871057889
 20
-424.258579499801
 10
-458.7898989438406
 20
-424.3503085055043
 10
-458.4254543874144
 20
-424.4400787464334
 10
-458.0605684684179
 20
-424.5280150910444
 10
-457.6952722666592
 20
-424.6142424077947
 10
-457.3295968619452
 20
-424.6988855651402
 10
-456.9635733340841
 20
-424.7820694315378
 10
-456.5972327628837
 20
-424.8639188754443
 10
-456.2306062281513
 20
-424.9445587653159
 10
-455.8637248096945
 20
-425.0241139696096
 10
-455.4966195873212
 20
-425.1027093567818
 10
-455.1293216408391
 20
-425.1804697952894
 10
-454.7618620500558
 20
-425.2575201535886
 10
-454.3942718947788
 20
-425.3339853001362
 10
-454.0265822548158
 20
-425.4099901033889
 10
-453.6588242099747
 20
-425.4856594318033
 10
-453.2910288400628
 20
-425.5611181538358
 10
-452.9232272248881
 20
-425.6364911379434
 10
-452.555450444258
 20
-425.7119032525823
 10
-452.1877295779803
 20
-425.7874793662094
 10
-451.8200957058627
 20
-425.8633443472813
 10
-451.5593145258115
 20
-425.9171210601565
 10
-451.2984563036378
 20
-425.9705491444979
 10
-451.0375199237288
 20
-426.0236160208048
 10
-450.7765042704721
 20
-426.0763091095768
 10
-450.5154082282544
 20
-426.1286158313131
 10
-450.2542306814635
 20
-426.1805236065135
 10
-449.9929705144866
 20
-426.2320198556772
 10
-449.731626611711
 20
-426.2830919993037
 10
-449.4701978575239
 20
-426.3337274578925
 10
-449.2086831363125
 20
-426.3839136519428
 10
-448.9470813324644
 20
-426.4336380019545
 10
-448.6853913303668
 20
-426.4828879284267
 10
-448.4236120144068
 20
-426.531650851859
 10
-448.1617422689719
 20
-426.5799141927506
 10
-447.8997809784494
 20
-426.6276653716013
 10
-447.6377270272264
 20
-426.6748918089103
 10
-447.3755792996906
 20
-426.7215809251771
 10
-447.1133366802288
 20
-426.7677201409011
 10
-446.8509980532286
 20
-426.813296876582
 10
-446.5885623030773
 20
-426.858298552719
 10
-446.2856046157261
 20
-426.9094386914245
 10
-445.9825069570812
 20
-426.9597181899164
 10
-445.6792796020085
 20
-427.0091997521218
 10
-445.3759328253748
 20
-427.057946081969
 10
-445.0724769020456
 20
-427.1060198833847
 10
-444.7689221068877
 20
-427.1534838602969
 10
-444.4652787147674
 20
-427.2004007166333
 10
-444.1615570005508
 20
-427.2468331563214
 10
-443.8577672391041
 20
-427.2928438832884
 10
-443.5539197052935
 20
-427.3384956014619
 10
-443.2500246739857
 20
-427.38385101477
 10
-442.9460924200465
 20
-427.4289728271397
 10
-442.6421332183423
 20
-427.4739237424987
 10
-442.3381573437395
 20
-427.5187664647747
 10
-442.0341750711041
 20
-427.5635636978951
 10
-441.7301966753025
 20
-427.6083781457875
 10
-441.4262324312011
 20
-427.6532725123795
 10
-441.122292613666
 20
-427.6983095015986
 10
-440.8183874975635
 20
-427.7435518173723
 10
-440.5145273577598
 20
-427.7890621636283
 10
-440.2097500447103
 20
-427.8348576844785
 10
-439.9049678447825
 20
-427.8806239901069
 10
-439.6001793267018
 20
-427.9263508250656
 10
-439.2953830591946
 20
-427.9720279339073
 10
-438.9905776109862
 20
-428.017645061184
 10
-438.685761550803
 20
-428.0631919514485
 10
-438.3809334473705
 20
-428.1086583492533
 10
-438.0760918694148
 20
-428.1540339991506
 10
-437.7712353856615
 20
-428.1993086456927
 10
-437.4663625648363
 20
-428.2444720334321
 10
-437.1614719756657
 20
-428.2895139069217
 10
-436.8565621868752
 20
-428.3344240107132
 10
-436.5516317671904
 20
-428.3791920893595
 10
-436.2466792853374
 20
-428.4238078874128
 10
-435.9417033100422
 20
-428.4682611494258
 10
-435.6367024100304
 20
-428.5125416199504
 10
-435.3316751540279
 20
-428.5566390435396
 10
-435.0266201107606
 20
-428.6005431647455
 10
-434.7215358489544
 20
-428.6442437281206
 10
-434.4164209373351
 20
-428.6877304782174
 10
-434.0667940072994
 20
-428.7373921765306
 10
-433.7171537937766
 20
-428.7869671548202
 10
-433.3674987947733
 20
-428.8364432216355
 10
-433.0178275082976
 20
-428.8858081855266
 10
-432.6681384323559
 20
-428.9350498550432
 10
-432.3184300649561
 20
-428.984156038735
 10
-431.9687009041055
 20
-429.033114545152
 10
-431.6189494478112
 20
-429.0819131828439
 10
-431.2691741940803
 20
-429.1305397603603
 10
-430.9193736409202
 20
-429.1789820862511
 10
-430.5695462863386
 20
-429.2272279690663
 10
-430.2196906283422
 20
-429.2752652173554
 10
-429.8698051649386
 20
-429.3230816396681
 10
-429.5198883941349
 20
-429.3706650445545
 10
-429.1699388139386
 20
-429.4180032405643
 10
-428.8199549223568
 20
-429.465084036247
 10
-428.4699352173971
 20
-429.5118952401529
 10
-428.1198781970663
 20
-429.5584246608312
 10
-427.769782359372
 20
-429.6046601068322
 10
-427.4196462023214
 20
-429.6505893867053
 10
-427.0331708492777
 20
-429.7008716017209
 10
-426.6466389948592
 20
-429.7507109181406
 10
-426.260055266923
 20
-429.800143621351
 10
-425.8734242933267
 20
-429.84920599674
 10
-425.4867507019268
 20
-429.8979343296943
 10
-425.1000391205812
 20
-429.9463649056015
 10
-424.713294177147
 20
-429.9945340098488
 10
-424.3265204994813
 20
-430.0424779278233
 10
-423.9397227154412
 20
-430.0902329449123
 10
-423.552905452884
 20
-430.1378353465028
 10
-423.1660733396673
 20
-430.1853214179824
 10
-422.7792310036479
 20
-430.2327274447382
 10
-422.3923830726831
 20
-430.2800897121573
 10
-422.00553417463
 20
-430.327444505627
 10
-421.6186889373464
 20
-430.3748281105347
 10
-421.2318519886888
 20
-430.4222768122673
 10
-420.845027956515
 20
-430.4698268962124
 10
-420.4582214686818
 20
-430.5175146477569
 10
-420.0714371530468
 20
-430.5653763522882
 10
-419.6846796374669
 20
-430.6134482951936
 10
-419.4403622012381
 20
-430.6440072406559
 10
-419.1960694740933
 20
-430.6747717896614
 10
-418.9517971972959
 20
-430.7057064747183
 10
-418.7075411121099
 20
-430.7367758283354
 10
-418.4632969597981
 20
-430.7679443830204
 10
-418.2190604816247
 20
-430.7991766712824
 10
-417.974827418853
 20
-430.8304372256299
 10
-417.7305935127466
 20
-430.8616905785708
 10
-417.4863545045687
 20
-430.8929012626139
 10
-417.2421061355832
 20
-430.9240338102672
 10
-416.9978441470537
 20
-430.9550527540399
 10
-416.7535642802435
 20
-430.9859226264398
 10
-416.5092622764162
 20
-431.0166079599754
 10
-416.2649338768354
 20
-431.0470732871553
 10
-416.0205748227647
 20
-431.077283140488
 10
-415.7761808554674
 20
-431.1072020524816
 10
-415.5317477162073
 20
-431.1367945556449
 10
-415.2872711462477
 20
-431.166025182486
 10
-415.0427468868525
 20
-431.1948584655136
 10
-414.7981706792849
 20
-431.223258937236
 10
-414.5272225574458
 20
-431.2544985159656
 10
-414.2562715692166
 20
-431.2857729205024
 10
-413.9853136811463
 20
-431.3170350516068
 10
-413.7143448597851
 20
-431.34823781004
 10
-413.4433610716817
 20
-431.379334096562
 10
-413.1723582833862
 20
-431.4102768119338
 10
-412.9013324614481
 20
-431.4410188569163
 10
-412.6302795724169
 20
-431.4715131322698
 10
-412.3591955828419
 20
-431.5017125387548
 10
-412.0880764592727
 20
-431.5315699771322
 10
-411.8169181682592
 20
-431.5610383481628
 10
-411.5457166763505
 20
-431.590070552607
 10
-411.2744679500962
 20
-431.6186194912253
 10
-411.0031679560459
 20
-431.6466380647786
 10
-410.7318126607491
 20
-431.6740791740277
 10
-410.4603980307554
 20
-431.7008957197328
 10
-410.1889200326144
 20
-431.7270406026549
 10
-409.9173746328753
 20
-431.7524667235544
 10
-409.645757798088
 20
-431.7771269831923
 10
-409.3740654948018
 20
-431.8009742823289
 10
-408.994131722013
 20
-431.833273856983
 10
-408.6141283703333
 20
-431.8647102376243
 10
-408.2340600977167
 20
-431.8953392447939
 10
-407.853931562118
 20
-431.9252166990343
 10
-407.4737474214912
 20
-431.9543984208864
 10
-407.0935123337909
 20
-431.9829402308923
 10
-406.7132309569718
 20
-432.0108979495938
 10
-406.332907948988
 20
-432.0383273975324
 10
-405.9525479677939
 20
-432.0652843952498
 10
-405.5721556713438
 20
-432.0918247632877
 10
-405.1917357175926
 20
-432.1180043221881
 10
-404.8112927644943
 20
-432.1438788924924
 10
-404.4308314700034
 20
-432.1695042947422
 10
-404.0503564920743
 20
-432.1949363494793
 10
-403.6698724886616
 20
-432.2202308772457
 10
-403.2893841177194
 20
-432.2454436985826
 10
-402.9088960372023
 20
-432.2706306340322
 10
-402.5284129050647
 20
-432.2958475041357
 10
-402.1479393792611
 20
-432.3211501294352
 10
-401.7674801177457
 20
-432.3465943304722
 10
-401.6696845682854
 20
-432.3530699861246
 10
-401.5718761934068
 20
-432.3593709000652
 10
-401.4740554621488
 20
-432.3654970492263
 10
-401.3762228435513
 20
-432.371448410541
 10
-401.2783788066528
 20
-432.377224960941
 10
-401.1805238204931
 20
-432.3828266773593
 10
-401.0826583541114
 20
-432.3882535367283
 10
-400.9847828765471
 20
-432.3935055159805
 10
-400.8868978568391
 20
-432.3985825920482
 10
-400.789003764027
 20
-432.4034847418641
 10
-400.6911010671502
 20
-432.4082119423608
 10
-400.5931902352476
 20
-432.4127641704706
 10
-400.4952717373587
 20
-432.4171414031259
 10
-400.3973460425228
 20
-432.4213436172594
 10
-400.2994136197792
 20
-432.4253707898037
 10
-400.2014749381671
 20
-432.4292228976908
 10
-400.1035304667259
 20
-432.4328999178538
 10
-400.0055806744947
 20
-432.4364018272247
 10
-399.9076260305129
 20
-432.4397286027363
 10
-399.8096670038198
 20
-432.442880221321
  0
ENDBLK
  5
69
330
66
100
AcDbEntity
  8
0
100
AcDbBlockEnd
  0
ENDSEC
  0
SECTION
  2
ENTITIES
  0
LWPOLYLINE
  5
39
330
1F
100
AcDbEntity
  8
0
  6
Continuous
 62
     7
370
     0
100
AcDbPolyline
 90
        4
 70
   129
 43
0.0
 10
-380.4495595287598
 20
-343.5185099764576
 10
-380.4495595287599
 20
-623.5185099764576
 10
-766.4495595287599
 20
-623.5185099764576
 10
-766.4495595287599
 20
-343.5185099764576
1001
TCAD
1000
TCW_CUSTOM_DATA
1002
{
1000
#$AUX@_ToolInfo Properties
1070
     8
1000
CMD_RECTANGLE@
1002
}
  0
LINE
  5
3A
330
1F
100
AcDbEntity
  8
0
  6
Continuous
 62
     5
420
      255
370
     0
100
AcDbLine
 10
-736.0283433365294
 20
-523.5476605589872
 30
0.0
 11
-400.5447852425435
 21
-523.5476605589872
 31
0.0
1001
TCAD
1000
TCW_CUSTOM_DATA
1002
{
1000
#$AUX@_ToolInfo Properties
1070
     8
1000
CMD_LINE@
1002
}
  0
LINE
  5
3B
330
1F
100
AcDbEntity
  8
0
  6
Continuous
 62
     7
370
     0
100
AcDbLine
 10
-747.2557121457635
 20
-488.0922185223908
 30
0.0
 11
-747.2557121457635
 21
-511.3795435869928
 31
0.0
1001
TCAD
1000
TCW_CUSTOM_DATA
1002
{
1000
#$AUX@_ToolInfo Properties
1070
     8
1000
CMD_LINE@
1002
}
  0
LINE
  5
3C
330
1F
100
AcDbEntity
  8
0
  6
Continuous
 62
     7
370
     0
100
AcDbLine
 10
-744.2560470404865
 20
-488.0923997745323
 30
0.0
 11
-400.2728633510636
 21
-496.2322902943615
 31
0.0
1001
TCAD
1000
TCW_CUSTOM_DATA
1002
{
1000
#$AUX@_ToolInfo Properties
1070
     8
1000
CMD_LINE@
1002
}
  0
LINE
  5
3D
330
1F
100
AcDbEntity
  8
0
  6
Continuous
 62
     7
370
     0
100
AcDbLine
 10
-413.652579815569
 20
-508.1508630202588
 30
0.0
 11
-413.652579815569
 21
-530.2651134937603
 31
0.0
1001
TCAD
1000
TCW_CUSTOM_DATA
1002
{
1000
#$AUX@_ToolInfo Properties
1070
     8
1000
CMD_POLYLINE@
1002
}
  0
LINE
  5
3E
330
1F
100
AcDbEntity
  8
0
  6
Continuous
 62
     7
370
     0
100
AcDbLine
 10
-744.2557157282396
 20
-488.0923997744948
 30
0.0
 11
-744.2557157282396
 21
-514.7409096589649
 31
0.0
1001
TCAD
1000
TCW_CUSTOM_DATA
1002
{
1000
#$AUX@_ToolInfo Properties
1070
     8
1000
CMD_LINE@
1002
}
  0
LINE
  5
3F
330
1F
100
AcDbEntity
  8
0
  6
Continuous
 62
     7
370
     0
100
AcDbLine
 10
-747.2558222077021
 20
-488.0922939684473
 30
0.0
 11
-744.2558222077021
 21
-488.0922939684473
 31
0.0
1001
TCAD
1000
TCW_CUSTOM_DATA
1002
{
1000
#$AUX@_ToolInfo Properties
1070
     8
1000
CMD_LINE@
1002
}
  0
LINE
  5
40
330
1F
100
AcDbEntity
  8
0
  6
Continuous
 62
     7
370
     0
100
AcDbLine
 10
-400.2728385972997
 20
-496.2323568850828
 30
0.0
 11
-400.2728385972997
 21
-528.9994431451003
 31
0.0
1001
TCAD
1000
TCW_CUSTOM_DATA
1002
{
1000
#$AUX@_ToolInfo Properties
1070
     8
1000
CMD_LINE@
1002
}
  0
INSERT
  5
45
330
1F
100
AcDbEntity
  8
0
  6
Continuous
 62
     7
100
AcDbBlockReference
  2
*E1
 10
0.0
 20
0.0
 30
0.0
1001
TCAD
1000
TC25ExternalObject
1002
{
1000
TCW30CURVE
1000

1070
     0
1071
        0
1040
1.0
1040
0.0
1000
Continuous
1000
0
1071
      178
1071
      162
1010
-743.2793176004456
1020
-515.9559095055116
1030
0.0
1071
     6274
1010
-742.7997849646335
1020
-516.4893190820009
1030
0.0
1071
     6274
1010
-742.3169158397836
1020
-517.0197479319044
1030
0.0
1071
      130
1010
-741.8307665806251
1020
-517.5471341498879
1030
0.0
1071
     6274
1010
-741.4803260059543
1020
-517.9273003762513
1030
0.0
1071
     6274
1010
-741.1275779001905
1020
-518.3054007394288
1030
0.0
1071
      130
1010
-740.7696158253486
1020
-518.6784933673615
1030
0.0
1071
     6274
1010
-739.8778351507424
1020
-519.6079683559484
1030
0.0
1071
     6274
1010
-738.9906497734709
1020
-520.5421095044948
1030
0.0
1071
      130
1010
-738.0816347046518
1020
-521.4547365535512
1030
0.0
1071
     6274
1010
-736.9711547489076
1020
-522.5696290122249
1030
0.0
1071
     6274
1010
-735.8807593137702
1020
-523.7073265580466
1030
0.0
1071
      130
1010
-734.7116285249433
1020
-524.7605521393605
1030
0.0
1071
     6274
1010
-733.3967294759291
1020
-525.9450948171364
1030
0.0
1071
     6274
1010
-732.0114644399317
1020
-527.04959757175
1030
0.0
1071
      130
1010
-730.6355258123438
1020
-528.1626536160185
1030
0.0
1071
     6274
1010
-729.3793107990498
1020
-529.1788600698618
1030
0.0
1071
     6274
1010
-728.0971176911061
1020
-530.1626485381347
1030
0.0
1071
      130
1010
-726.8161854753408
1020
-531.1475162323317
1030
0.0
1071
     6274
1010
-725.8289582420305
1020
-531.9065635862448
1030
0.0
1071
     6274
1010
-724.8249065267191
1020
-532.6434793586798
1030
0.0
1071
      130
1010
-723.8313228590276
1020
-533.3941870188039
1030
0.0
1071
     6274
1010
-722.177041871933
1020
-534.6440882092039
1030
0.0
1071
     6274
1010
-720.5352626161967
1020
-535.9106076269521
1030
0.0
1071
      130
1010
-718.8725994812719
1020
-537.1493367619076
1030
0.0
1071
     6274
1010
-717.5770295792508
1020
-538.1145714810124
1030
0.0
1071
     6274
1010
-716.2593743742391
1020
-539.0498209335856
1030
0.0
1071
      130
1010
-714.9569732534203
1020
-540.0058181901078
1030
0.0
1071
     6274
1010
-712.6593430641931
1020
-541.6923402011015
1030
0.0
1071
     6274
1010
-710.3800930586176
1020
-543.4039664989331
1030
0.0
1071
      130
1010
-708.0725320586882
1020
-545.0768751072015
1030
0.0
1071
     6274
1010
-706.1594152477809
1020
-546.4638241766684
1030
0.0
1071
     6274
1010
-704.237360980738
1020
-547.8388383242601
1030
0.0
1071
      130
1010
-702.2953786077596
1020
-549.1850731167509
1030
0.0
1071
     6274
1010
-700.2091322164692
1020
-550.6313156350883
1030
0.0
1071
     6274
1010
-698.1124930161066
1020
-552.0633002017263
1030
0.0
1071
      130
1010
-695.9886527600365
1020
-553.4537476094755
1030
0.0
1071
     6274
1010
-693.9449431433261
1020
-554.7917346499911
1030
0.0
1071
     6274
1010
-691.88566094362
1020
-556.1072318928
1030
0.0
1071
      130
1010
-689.794260448763
1020
-557.3693738373271
1030
0.0
1071
     6274
1010
-687.5947135302807
1020
-558.6967812045908
1030
0.0
1071
     6274
1010
-685.3758309187198
1020
-559.9943522724785
1030
0.0
1071
      130
1010
-683.1184386832454
1020
-561.2208094712796
1030
0.0
1071
     6274
1010
-681.2980727609915
1020
-562.2098271770711
1030
0.0
1071
     6274
1010
-679.4275297368733
1020
-563.1040251711472
1030
0.0
1071
      130
1010
-677.5659523109639
1020
-564.0131003058951
1030
0.0
1071
     6274
1010
-675.9877067937977
1020
-564.7838142908278
1030
0.0
1071
     6274
1010
-674.3927370982467
1020
-565.5198976930499
1030
0.0
1071
      130
1010
-672.799800716822
1020
-566.2597710901656
1030
0.0
1071
     6274
1010
-671.3061864990518
1020
-566.9535121825082
1030
0.0
1071
     6274
1010
-669.8210008482029
1020
-567.6670907194276
1030
0.0
1071
      130
1010
-668.3064591438774
1020
-568.3138700949402
1030
0.0
1071
     6274
1010
-666.8137744662856
1020
-568.9513155088583
1030
0.0
1071
     6274
1010
-665.3069359329977
1020
-569.5580053975872
1030
0.0
1071
      130
1010
-663.7810222739834
1020
-570.111206724118
1030
0.0
1071
     6274
1010
-661.7645278729597
1020
-570.8422620960904
1030
0.0
1071
     6274
1010
-659.7249431345126
1020
-571.5089398171574
1030
0.0
1071
      130
1010
-657.6829158535586
1020
-572.1653057288927
1030
0.0
1071
     6274
1010
-655.8302986588074
1020
-572.7607898272056
1030
0.0
1071
     6274
1010
-653.9779257690218
1020
-573.3624445142206
1030
0.0
1071
      130
1010
-652.0983341843274
1020
-573.8663564672217
1030
0.0
1071
     6274
1010
-649.9853900906608
1020
-574.4328294145854
1030
0.0
1071
     6274
1010
-647.8544307169032
1020
-574.9358416900864
1030
0.0
1071
      130
1010
-645.7113700913562
1020
-575.3748354238531
1030
0.0
1071
     6274
1010
-643.987475855196
1020
-575.7279653159007
1030
0.0
1071
     6274
1010
-642.2430473224832
1020
-575.9732535526033
1030
0.0
1071
      130
1010
-640.5039081636783
1020
-576.2414084414924
1030
0.0
1071
     6274
1010
-638.6347627028667
1020
-576.5296087794723
1030
0.0
1071
     6274
1010
-636.7619652060157
1020
-576.7945187532965
1030
0.0
1071
      130
1010
-634.8872311974975
1020
-577.0437908652325
1030
0.0
1071
     6274
1010
-632.899659456546
1020
-577.3080663321733
1030
0.0
1071
     6274
1010
-630.9137169682926
1020
-577.5937685147509
1030
0.0
1071
      130
1010
-628.9175059648712
1020
-577.7819826950735
1030
0.0
1071
     6274
1010
-627.1674659119576
1020
-577.946986471491
1030
0.0
1071
     6274
1010
-625.4106497752214
1020
-578.0427959867977
1030
0.0
1071
      130
1010
-623.6538772651361
1020
-578.1029356645694
1030
0.0
1071
     6274
1010
-621.3468187887522
1020
-578.1819133082732
1030
0.0
1071
     6274
1010
-619.0377268529976
1020
-578.1992215554183
1030
0.0
1071
      130
1010
-616.7293169496962
1020
-578.1992215554183
1030
0.0
1071
     6274
1010
-614.835422455159
1020
-578.1992215554183
1030
0.0
1071
     6274
1010
-612.941325238608
1020
-578.1650434478352
1030
0.0
1071
      130
1010
-611.0484493896163
1020
-578.1029356645694
1030
0.0
1071
     6274
1010
-609.3541722782215
1020
-578.047344170979
1030
0.0
1071
     6274
1010
-607.6610711798285
1020
-577.9548373932279
1030
0.0
1071
      130
1010
-605.9693686478206
1020
-577.8461732889726
1030
0.0
1071
     6274
1010
-603.996565992278
1020
-577.7194531183866
1030
0.0
1071
     6274
1010
-602.0240400502394
1020
-577.5814455190224
1030
0.0
1071
      130
1010
-600.0558101853351
1020
-577.3968391316781
1030
0.0
1071
     6274
1010
-598.1452337266858
1020
-577.2176402362314
1030
0.0
1071
     6274
1010
-596.2380742269806
1020
-576.9999869337929
1030
0.0
1071
      130
1010
-594.3348235045471
1020
-576.754933192686
1030
0.0
1071
     6274
1010
-592.4984562342746
1020
-576.5184910548625
1030
0.0
1071
     6274
1010
-590.6710897715832
1020
-576.2167072906542
1030
0.0
1071
      130
1010
-588.8385039024065
1020
-575.952550768946
1030
0.0
1071
     6274
1010
-585.6240996482427
1020
-575.4892132187523
1030
0.0
1071
     6274
1010
-582.400244050838
1020
-575.0884216936304
1030
0.0
1071
      130
1010
-579.1938671700086
1020
-574.572453000113
1030
0.0
1071
     6274
1010
-575.88394083127
1020
-574.0398211754363
1030
0.0
1071
     6274
1010
-572.579750751501
1020
-573.4653009839602
1030
0.0
1071
      130
1010
-569.2924680620139
1020
-572.8072116678849
1030
0.0
1071
     6274
1010
-567.0201158495612
1020
-572.3523038140037
1030
0.0
1071
     6274
1010
-564.7715188138575
1020
-571.7848252839384
1030
0.0
1071
      130
1010
-562.5203604075637
1020
-571.2345421179833
1030
0.0
1071
     6274
1010
-560.4383406693908
1020
-570.725603959789
1030
0.0
1071
     6274
1010
-558.3693456841638
1020
-570.164788058591
1030
0.0
1071
      130
1010
-556.2938727993404
1020
-569.629777270503
1030
0.0
1071
     6274
1010
-553.5550511383559
1020
-568.9237699090048
1030
0.0
1071
     6274
1010
-550.8084029548122
1020
-568.2474446775121
1030
0.0
1071
      130
1010
-548.0774767802418
1020
-567.5114876718293
1030
0.0
1071
     6274
1010
-545.2502473609518
1020
-566.7495779149218
1030
0.0
1071
     6274
1010
-542.4401591256642
1020
-565.9254221388193
1030
0.0
1071
      130
1010
-539.6203660368953
1020
-565.1364356981877
1030
0.0
1071
     6274
1010
-537.0107020407593
1020
-564.4062439987481
1030
0.0
1071
     6274
1010
-534.3904724804968
1020
-563.7132037967992
1030
0.0
1071
      130
1010
-531.7891135811919
1020
-562.9539555056145
1030
0.0
1071
     6274
1010
-529.9180661048729
1020
-562.407860309177
1030
0.0
1071
     6274
1010
-528.060451995779
1020
-561.8162918501706
1030
0.0
1071
      130
1010
-526.2045319119609
1020
-561.2208094703359
1030
0.0
1071
     6274
1010
-524.0590801814562
1020
-560.5324292359494
1030
0.0
1071
     6274
1010
-521.9196547096758
1020
-559.8250825782828
1030
0.0
1071
      130
1010
-519.7854725220402
1020
-559.1025198716621
1030
0.0
1071
     6274
1010
-518.0012147335196
1020
-558.4984298626406
1030
0.0
1071
     6274
1010
-516.2258553594709
1020
-557.868305935157
1030
0.0
1071
      130
1010
-514.4496294065636
1020
-557.2409926488996
1030
0.0
1071
     6274
1010
-512.136356598947
1020
-556.4240094466327
1030
0.0
1071
     6274
1010
-509.8291055093874
1020
-555.5900632574356
1030
0.0
1071
      130
1010
-507.5170452654492
1020
-554.7696547837801
1030
0.0
1071
     6274
1010
-505.5176319844455
1020
-554.0601855550368
1030
0.0
1071
     6274
1010
-503.5085843822321
1020
-553.3776690988062
1030
0.0
1071
      130
1010
-501.5152247358732
1020
-552.6513651851063
1030
0.0
1071
     6274
1010
-499.4857715449699
1020
-551.9119101660802
1030
0.0
1071
     6274
1010
-497.4657283850351
1020
-551.1466418336881
1030
0.0
1071
      130
1010
-495.4492136123982
1020
-550.3725991016844
1030
0.0
1071
     6274
1010
-493.4242924717112
1020
-549.5953295705617
1030
0.0
1071
     6274
1010
-491.4066995142495
1020
-548.7989966528002
1030
0.0
1071
      130
1010
-489.3912263165136
1020
-547.9975471289864
1030
0.0
1071
     6274
1010
-486.4024682628365
1020
-546.8090725208375
1030
0.0
1071
     6274
1010
-483.4449290081307
1020
-545.5410015529372
1030
0.0
1071
      130
1010
-480.4366384675741
1020
-544.4028738706307
1030
0.0
1071
     6274
1010
-477.4205033497892
1020
-543.2617783464954
1030
0.0
1071
     6274
1010
-474.365204924397
1020
-542.2268386942663
1030
0.0
1071
      130
1010
-471.3215741338866
1020
-541.1612488787208
1030
0.0
1071
     6274
1010
-469.2619615543171
1020
-540.4401685835675
1030
0.0
1071
     6274
1010
-467.2032934953043
1020
-539.7150612756508
1030
0.0
1071
      130
1010
-465.1271818226131
1020
-539.042959280047
1030
0.0
1071
     6274
1010
-463.3031166054276
1020
-538.452452570457
1030
0.0
1071
     6274
1010
-461.4806542185206
1020
-537.8477468732989
1030
0.0
1071
      130
1010
-459.622838396714
1020
-537.3740038386676
1030
0.0
1071
     6274
1010
-457.1980015105567
1020
-536.7556704326051
1030
0.0
1071
     6274
1010
-454.7395964786995
1020
-536.2762459086077
1030
0.0
1071
      130
1010
-452.2890630446877
1020
-535.7692389911873
1030
0.0
1071
     6274
1010
-450.5507761722823
1020
-535.4095934313519
1030
0.0
1071
     6274
1010
-448.8074275325545
1020
-535.0723511404042
1030
0.0
1071
      130
1010
-447.0575296419022
1020
-534.7742847857496
1030
0.0
1071
     6274
1010
-445.0383011302437
1020
-534.4303423849389
1030
0.0
1071
     6274
1010
-443.0090562079102
1020
-534.1479562602154
1030
0.0
1071
      130
1010
-440.9834946965848
1020
-533.8435211748402
1030
0.0
1071
     6274
1010
-438.9516590519073
1020
-533.5381431083152
1030
0.0
1071
     6274
1010
-436.9195930336084
1020
-533.2340290267513
1030
0.0
1071
      130
1010
-434.8853882761601
1020
-532.9448528602512
1030
0.0
1071
     6274
1010
-432.5545830164525
1020
-532.6135128968614
1030
0.0
1071
     6274
1010
-430.2229923237662
1020
-532.2871415050469
1030
0.0
1071
      130
1010
-427.8886135411464
1020
-531.9819939517632
1030
0.0
1071
     6274
1010
-425.3123098095651
1020
-531.6452222221448
1030
0.0
1071
     6274
1010
-422.7319307958464
1020
-531.3403960914178
1030
0.0
1071
      130
1010
-420.1536469762919
1020
-531.019135043275
1030
0.0
1071
     6274
1010
-418.5247722406278
1020
-530.816172901984
1030
0.0
1071
     6274
1010
-416.8978286929936
1020
-530.5971393583834
1030
0.0
1071
      130
1010
-415.2671380181098
1020
-530.4093244012325
1030
0.0
1071
     6274
1010
-413.4608177972611
1020
-530.2012812940359
1030
0.0
1071
     6274
1010
-411.6545753804209
1020
-529.9877765170702
1030
0.0
1071
      130
1010
-409.8430328336268
1020
-529.8316090561397
1030
0.0
1071
     6274
1010
-407.3103832956824
1020
-529.6132771994203
1030
0.0
1071
     6274
1010
-404.7727846347022
1020
-529.4562129796831
1030
0.0
1071
      130
1010
-402.2364474565707
1020
-529.2859890079964
1030
0.0
1071
     6274
1010
-401.58452092054
1020
-529.2422355492024
1030
0.0
1071
     6274
1010
-400.931708087327
1020
-529.210130000028
1030
0.0
1071
      162
1010
-400.2786343426448
1020
-529.1897031171476
1030
0.0
1070
     3
1071
-2147483635
1000
$SPLINESEGS
1070
    18
1070
    20
1000
$SPLFRAME
1070
    18
1070
     0
1000
$SPLINETYPE
1070
    18
1070
     1
1000
$SHOWCONTRPTS
1070
    18
1070
     1
1000
$CURVESMOOTH
1070
    18
1070
     1
1000
DEGREE
1070
    19
1071
        3
1000
RATIONAL
1070
    17
1070
 16640
1000
SPLINECLOSED
1070
    17
1070
 20480
1000
NPOINTS
1070
     3
1071
        0
1000
NKNOTS
1070
     3
1071
        0
1000
WEIGHTS
1070
  8204
1070
    12
1070
     8
1004
0000000000000000
1070
    16
1000
KNOTS
1070
  8204
1070
    12
1070
     8
1004
0000000000000000
1070
    16
1000
REALDEGREE
1070
    19
1071
        3
1002
}
1000
TCW_CUSTOM_DATA
1002
{
1000
#$AUX@_ToolInfo Properties
1070
     8
1000
CMD_BEZIER@
1002
}
  0
LINE
  5
46
330
1F
100
AcDbEntity
  8
0
  6
Continuous
 62
     7
370
     0
100
AcDbLine
 10
-400.2726370920297
 20
-499.2326334505811
 30
0.0
 11
-744.2561730198981
 21
-491.0947469668607
 31
0.0
1001
TCAD
1000
TCW_CUSTOM_DATA
1002
{
1000
#$AUX@_ToolInfo Properties
1070
     8
1000
CMD_LINE@
1002
}
  0
LINE
  5
47
330
1F
100
AcDbEntity
  8
0
  6
Continuous
 62
     7
370
     0
100
AcDbLine
 10
-604.002129741622
 20
-577.6988268364146
 30
0.0
 11
-604.002129741622
 21
-555.2657569754367
 31
0.0
1001
TCAD
1000
TCW_CUSTOM_DATA
1002
{
1000
#$AUX@_ToolInfo Properties
1070
     8
1000
CMD_LINE@
1002
}
  0
LWPOLYLINE
  5
48
330
1F
100
AcDbEntity
  8
0
  6
Continuous
 62
     7
370
     0
100
AcDbPolyline
 90
        4
 70
   129
 43
0.0
 10
-548.7199790070435
 20
-523.5476584335419
 10
-468.7199790070435
 20
-523.5476584335419
 10
-468.7199790070435
 20
-526.5476584335419
 10
-548.7199790070435
 20
-526.5476584335419
1001
TCAD
1000
TCW_CUSTOM_DATA
1002
{
1000
#$AUX@_ToolInfo Properties
1070
     8
1000
CMD_RECTANGLE@
1002
}
  0
LWPOLYLINE
  5
49
330
1F
100
AcDbEntity
  8
0
  6
Continuous
 62
     7
370
     0
100
AcDbPolyline
 90
        4
 70
   129
 43
0.0
 10
-548.7199720128103
 20
-526.5476560340193
 10
-468.7199720128103
 20
-526.5476560340193
 10
-468.7199720128103
 20
-531.5476560340193
 10
-548.7199720128103
 20
-531.5476560340193
1001
TCAD
1000
TCW_CUSTOM_DATA
1002
{
1000
#$AUX@_ToolInfo Properties
1070
     8
1000
CMD_RECTANGLE@
1002
}
  0
LINE
  5
4A
330
1F
100
AcDbEntity
  8
0
  6
Continuous
 62
     7
370
     0
100
AcDbLine
 10
-685.3657066086823
 20
-492.5752622628833
 30
0.0
 11
-685.3657066086823
 21
-559.9731069712392
 31
0.0
1001
TCAD
1000
TCW_CUSTOM_DATA
1002
{
1000
#$AUX@_ToolInfo Properties
1070
     8
1000
CMD_LINE@
1002
}
  0
LINE
  5
4B
330
1F
100
AcDbEntity
  8
0
  6
Continuous
 62
     7
370
     0
100
AcDbLine
 10
-682.3609530149843
 20
-492.5628846334354
 30
0.0
 11
-685.3609530149843
 21
-492.5628846334354
 31
0.0
1001
TCAD
1000
TCW_CUSTOM_DATA
1002
{
1000
#$AUX@_ToolInfo Properties
1070
     8
1000
CMD_LINE@
1002
}
  0
LINE
  5
4C
330
1F
100
AcDbEntity
  8
0
  6
Continuous
 62
     7
370
     0
100
AcDbLine
 10
-744.2552919211931
 20
-496.0410264663101
 30
0.0
 11
-400.2748211305313
 21
-504.2878030494112
 31
0.0
1001
TCAD
1000
TCW_CUSTOM_DATA
1002
{
1000
#$AUX@_ToolInfo Properties
1070
     8
1000
CMD_LINE@
1002
}
  0
LINE
  5
4D
330
1F
100
AcDbEntity
  8
0
  6
Continuous
 62
     7
370
     0
100
AcDbLine
 10
-660.3720815344816
 20
-571.339304817072
 30
0.0
 11
-563.35817209702
 21
-571.339304817072
 31
0.0
1001
TCAD
1000
TCW_CUSTOM_DATA
1002
{
1000
#$AUX@_ToolInfo Properties
1070
     8
1000
CMD_LINE@
1002
}
  0
LINE
  5
4E
330
1F
100
AcDbEntity
  8
0
  6
Continuous
 62
     7
370
     0
100
AcDbLine
 10
-551.4121815611636
 20
-568.3581353363601
 30
0.0
 11
-668.2505861820223
 21
-568.3581353363601
 31
0.0
1001
TCAD
1000
TCW_CUSTOM_DATA
1002
{
1000
#$AUX@_ToolInfo Properties
1070
     8
1000
CMD_LINE@
1002
}
  0
LINE
  5
4F
330
1F
100
AcDbEntity
  8
0
  6
Continuous
 62
     7
370
     0
100
AcDbLine
 10
-644.7099641196605
 20
-571.3377625719795
 30
0.0
 11
-644.7099641196605
 21
-575.594779494361
 31
0.0
1001
TCAD
1000
TCW_CUSTOM_DATA
1002
{
1000
#$AUX@_ToolInfo Properties
1070
     8
1000
CMD_LINE@
1002
}
  0
LINE
  5
50
330
1F
100
AcDbEntity
  8
0
  6
Continuous
 62
     7
370
     0
100
AcDbLine
 10
-578.298606197201
 20
-574.4319969884738
 30
0.0
 11
-578.298606197201
 21
-571.3390439380179
 31
0.0
1001
TCAD
1000
TCW_CUSTOM_DATA
1002
{
1000
#$AUX@_ToolInfo Properties
1070
     8
1000
CMD_LINE@
1002
}
  0
LINE
  5
51
330
1F
100
AcDbEntity
  8
0
  6
Continuous
 62
     7
370
     0
100
AcDbLine
 10
-509.7420616337126
 20
-555.5859294608099
 30
0.0
 11
-509.7420616337126
 21
-542.9274359478329
 31
0.0
1001
TCAD
1000
TCW_CUSTOM_DATA
1002
{
1000
#$AUX@_ToolInfo Properties
1070
     8
1000
CMD_LINE@
1002
}
  0
LINE
  5
52
330
1F
100
AcDbEntity
  8
0
  6
Continuous
 62
     7
370
     0
100
AcDbLine
 10
-742.8496314445019
 20
-516.412967610584
 30
0.0
 11
-747.2721701065707
 21
-511.4376116157567
 31
0.0
1001
TCAD
1000
TCW_CUSTOM_DATA
1002
{
1000
#$AUX@_ToolInfo Properties
1070
     8
1000
CMD_LINE@
1002
}
  0
LINE
  5
53
330
1F
100
AcDbEntity
  8
0
  6
Continuous
 62
     7
370
     0
100
AcDbLine
 10
-690.3529021544764
 20
-497.3757059637527
 30
0.0
 11
-690.3529021544764
 21
-557.0792650946007
 31
0.0
1001
TCAD
1000
TCW_CUSTOM_DATA
1002
{
1000
#$AUX@_ToolInfo Properties
1070
     8
1000
CMD_LINE@
1002
}
  0
LINE
  5
54
330
1F
100
AcDbEntity
  8
0
  6
Continuous
 62
     7
370
     0
100
AcDbLine
 10
-739.2553643629392
 20
-496.1560221655959
 30
0.0
 11
-739.2553643629392
 21
-520.2436528706774
 31
0.0
1001
TCAD
1000
TCW_CUSTOM_DATA
1002
{
1000
#$AUX@_ToolInfo Properties
1070
     8
1000
CMD_LINE@
1002
}
  0
LINE
  5
55
330
1F
100
AcDbEntity
  8
0
  6
Continuous
 62
     7
370
     0
100
AcDbLine
 10
-405.2728276440548
 20
-504.183952122341
 30
0.0
 11
-405.2728276440548
 21
-529.5439898315224
 31
0.0
1001
TCAD
1000
TCW_CUSTOM_DATA
1002
{
1000
#$AUX@_ToolInfo Properties
1070
     8
1000
CMD_LINE@
1002
}
  0
LINE
  5
56
330
1F
100
AcDbEntity
  8
0
  6
Continuous
 62
     7
370
     0
100
AcDbLine
 10
-682.3657259462377
 20
-492.5567769509778
 30
0.0
 11
-682.3657259462377
 21
-559.9716564343215
 31
0.0
1001
TCAD
1000
TCW_CUSTOM_DATA
1002
{
1000
#$AUX@_ToolInfo Properties
1070
     8
1000
CMD_LINE@
1002
}
  0
LINE
  5
57
330
1F
100
AcDbEntity
  8
0
  6
Continuous
 62
     7
370
     0
100
AcDbLine
 10
-685.3656330068033
 20
-559.971313224589
 30
0.0
 11
-682.3655630717029
 21
-559.971313224589
 31
0.0
1001
TCAD
1000
TCW_CUSTOM_DATA
1002
{
1000
#$AUX@_ToolInfo Properties
1070
     8
1000
CMD_LINE@
1002
}
  0
LINE
  5
58
330
1F
100
AcDbEntity
  8
0
  6
Continuous
 62
     7
370
     0
100
AcDbLine
 10
-509.7419823498175
 20
-555.5858840673482
 30
0.0
 11
-538.8637015796171
 21
-554.1854646820208
 31
0.0
1001
TCAD
1000
TCW_CUSTOM_DATA
1002
{
1000
#$AUX@_ToolInfo Properties
1070
     8
1000
CMD_LINE@
1002
}
  0
TEXT
  5
59
330
1F
100
AcDbEntity
  8
0
  6
Continuous
 62
     5
420
      255
100
AcDbText
 10
-429.3022406011747
 20
-515.6897067044441
 30
0.0
 40
5.776946067810059
  1
8b.
  7
_TCW_TXTSTY_1
 11
-429.3022406011747
 21
-509.9127606366341
 31
0.0
100
AcDbText
 73
     3
1001
TCAD
1000
TCW40_TEXT
1002
{
1000
Times New Roman
1070
     0
1070
   257
1002
}
1000
TCW_CUSTOM_DATA
1002
{
1000
#$AUX@_ToolInfo Properties
1070
     8
1000
CMD_TEXT@
1002
}
  0
CIRCLE
  5
5A
330
1F
100
AcDbEntity
  8
0
  6
Continuous
 62
     5
420
      255
370
     0
100
AcDbCircle
 10
-424.3011419021726
 20
-513.0921083162634
 30
0.0
 40
5.862654945854388
1001
TCAD
1000
TCW_CUSTOM_DATA
1002
{
1000
#$AUX@_ToolInfo Properties
1070
     8
1000
CMD_CENTERPTCIRCLE@
1002
}
  0
LWPOLYLINE
  5
5B
330
1F
100
AcDbEntity
  8
0
  6
Continuous
 62
     5
420
      255
370
     0
100
AcDbPolyline
 90
        4
 70
   128
 43
0.0
 10
-462.837349438819
 20
-508.6724892129059
 10
-448.0494497964323
 20
-508.6724892129059
 10
-453.3735364207353
 20
-510.2663945635824
 10
-431.4573378489342
 20
-510.2663945635824
1001
TCAD
1000
TCW_CUSTOM_DATA
1002
{
1000
#$AUX@_ToolInfo Properties
1070
     8
1000
CMD_POLYLINE@
1002
}
  0
LWPOLYLINE
  5
5C
330
1F
100
AcDbEntity
  8
0
  6
Continuous
 62
     5
420
      255
370
     0
100
AcDbPolyline
 90
        3
 70
   128
 43
0.0
 10
-462.848418227534
 20
-509.4694418882441
 10
-452.7979594885464
 20
-509.4694418882441
 10
-455.3659181090807
 20
-510.3106697122123
1001
TCAD
1000
TCW_CUSTOM_DATA
1002
{
1000
#$AUX@_ToolInfo Properties
1070
     8
1000
CMD_POLYLINE@
1002
}
  0
LWPOLYLINE
  5
5D
330
1F
100
AcDbEntity
  8
0
  6
Continuous
 62
     5
420
      255
370
     0
100
AcDbPolyline
 90
        3
 70
   128
 43
0.0
 10
-431.8115390379735
 20
-508.628214064276
 10
-445.7582108563922
 20
-508.628214064276
 10
-450.0529002734927
 20
-510.0007436718029
1001
TCAD
1000
TCW_CUSTOM_DATA
1002
{
1000
#$AUX@_ToolInfo Properties
1070
     8
1000
CMD_POLYLINE@
1002
}
  0
LINE
  5
5E
330
1F
100
AcDbEntity
  8
0
  6
Continuous
 62
     5
420
      255
370
     0
100
AcDbLine
 10
-455.3277791679286
 20
-510.2915058460416
 30
0.0
 11
-462.7558085818807
 21
-510.2915058460416
 31
0.0
1001
TCAD
1000
TCW_CUSTOM_DATA
1002
{
1000
#$AUX@_ToolInfo Properties
1070
     8
1000
CMD_LINE@
1002
}
  0
LINE
  5
5F
330
1F
100
AcDbEntity
  8
0
  6
Continuous
 62
     5
420
      255
370
     0
100
AcDbLine
 10
-735.5593759977044
 20
-438.0849227794814
 30
0.0
 11
-400.0758179037185
 21
-438.0849227794814
 31
0.0
1001
TCAD
1000
TCW_CUSTOM_DATA
1002
{
1000
#$AUX@_ToolInfo Properties
1070
     8
1000
CMD_LINE@
1002
}
  0
LINE
  5
60
330
1F
100
AcDbEntity
  8
0
  6
Continuous
 62
     7
370
     0
100
AcDbLine
 10
-746.7867448069385
 20
-473.5403648160777
 30
0.0
 11
-746.7867448069385
 21
-450.2530397514758
 31
0.0
1001
TCAD
1000
TCW_CUSTOM_DATA
1002
{
1000
#$AUX@_ToolInfo Properties
1070
     8
1000
CMD_LINE@
1002
}
  0
LINE
  5
61
330
1F
100
AcDbEntity
  8
0
  6
Continuous
 62
     7
370
     0
100
AcDbLine
 10
-743.7870797016615
 20
-473.5401835639364
 30
0.0
 11
-399.8038960122386
 21
-465.4002930441071
 31
0.0
1001
TCAD
1000
TCW_CUSTOM_DATA
1002
{
1000
#$AUX@_ToolInfo Properties
1070
     8
1000
CMD_LINE@
1002
}
  0
LINE
  5
62
330
1F
100
AcDbEntity
  8
0
  6
Continuous
 62
     7
370
     0
100
AcDbLine
 10
-413.183612476744
 20
-453.4817203182097
 30
0.0
 11
-413.183612476744
 21
-431.3674698447083
 31
0.0
1001
TCAD
1000
TCW_CUSTOM_DATA
1002
{
1000
#$AUX@_ToolInfo Properties
1070
     8
1000
CMD_POLYLINE@
1002
}
  0
LINE
  5
63
330
1F
100
AcDbEntity
  8
0
  6
Continuous
 62
     7
370
     0
100
AcDbLine
 10
-743.7867483894146
 20
-473.5401835639739
 30
0.0
 11
-743.7867483894146
 21
-446.8916736795036
 31
0.0
1001
TCAD
1000
TCW_CUSTOM_DATA
1002
{
1000
#$AUX@_ToolInfo Properties
1070
     8
1000
CMD_LINE@
1002
}
  0
LINE
  5
64
330
1F
100
AcDbEntity
  8
0
  6
Continuous
 62
     7
370
     0
100
AcDbLine
 10
-746.7868548688771
 20
-473.5402893700214
 30
0.0
 11
-743.7868548688771
 21
-473.5402893700214
 31
0.0
1001
TCAD
1000
TCW_CUSTOM_DATA
1002
{
1000
#$AUX@_ToolInfo Properties
1070
     8
1000
CMD_LINE@
1002
}
  0
LINE
  5
65
330
1F
100
AcDbEntity
  8
0
  6
Continuous
 62
     7
370
     0
100
AcDbLine
 10
-399.8038712584747
 20
-465.4002264533858
 30
0.0
 11
-399.8038712584747
 21
-432.6331401933683
 31
0.0
1001
TCAD
1000
TCW_CUSTOM_DATA
1002
{
1000
#$AUX@_ToolInfo Properties
1070
     8
1000
CMD_LINE@
1002
}
  0
INSERT
  5
6A
330
1F
100
AcDbEntity
  8
0
  6
Continuous
 62
     7
100
AcDbBlockReference
  2
*E2
 10
0.0
 20
0.0
 30
0.0
1001
TCAD
1000
TC25ExternalObject
1002
{
1000
TCW30CURVE
1000

1070
     0
1071
        0
1040
1.0
1040
0.0
1000
Continuous
1000
0
1071
      178
1071
      162
1010
-742.8103502616206
1020
-445.676673832957
1030
0.0
1071
     6274
1010
-742.3308176258085
1020
-445.1432642564677
1030
0.0
1071
     6274
1010
-741.8479485009586
1020
-444.6128354065642
1030
0.0
1071
      130
1010
-741.3617992418001
1020
-444.0854491885806
1030
0.0
1071
     6274
1010
-741.0113586671293
1020
-443.7052829622173
1030
0.0
1071
     6274
1010
-740.6586105613655
1020
-443.3271825990398
1030
0.0
1071
      130
1010
-740.3006484865236
1020
-442.9540899711071
1030
0.0
1071
     6274
1010
-739.4088678119174
1020
-442.0246149825202
1030
0.0
1071
     6274
1010
-738.5216824346459
1020
-441.0904738339738
1030
0.0
1071
      130
1010
-737.6126673658268
1020
-440.1778467849173
1030
0.0
1071
     6274
1010
-736.5021874100826
1020
-439.0629543262436
1030
0.0
1071
     6274
1010
-735.4117919749452
1020
-437.925256780422
1030
0.0
1071
      130
1010
-734.2426611861183
1020
-436.8720311991081
1030
0.0
1071
     6274
1010
-732.9277621371041
1020
-435.6874885213322
1030
0.0
1071
     6274
1010
-731.5424971011067
1020
-434.5829857667185
1030
0.0
1071
      130
1010
-730.1665584735188
1020
-433.4699297224501
1030
0.0
1071
     6274
1010
-728.9103434602248
1020
-432.4537232686068
1030
0.0
1071
     6274
1010
-727.6281503522811
1020
-431.4699348003339
1030
0.0
1071
      130
1010
-726.3472181365158
1020
-430.4850671061369
1030
0.0
1071
     6274
1010
-725.3599909032055
1020
-429.7260197522237
1030
0.0
1071
     6274
1010
-724.3559391878941
1020
-428.9891039797888
1030
0.0
1071
      130
1010
-723.3623555202026
1020
-428.2383963196647
1030
0.0
1071
     6274
1010
-721.7080745331081
1020
-426.9884951292647
1030
0.0
1071
     6274
1010
-720.0662952773718
1020
-425.7219757115164
1030
0.0
1071
      130
1010
-718.4036321424469
1020
-424.4832465765609
1030
0.0
1071
     6274
1010
-717.1080622404259
1020
-423.5180118574562
1030
0.0
1071
     6274
1010
-715.7904070354141
1020
-422.582762404883
1030
0.0
1071
      130
1010
-714.4880059145953
1020
-421.6267651483608
1030
0.0
1071
     6274
1010
-712.1903757253681
1020
-419.9402431373671
1030
0.0
1071
     6274
1010
-709.9111257197926
1020
-418.2286168395355
1030
0.0
1071
      130
1010
-707.6035647198632
1020
-416.555708231267
1030
0.0
1071
     6274
1010
-705.6904479089559
1020
-415.1687591618002
1030
0.0
1071
     6274
1010
-703.768393641913
1020
-413.7937450142085
1030
0.0
1071
      130
1010
-701.8264112689346
1020
-412.4475102217177
1030
0.0
1071
     6274
1010
-699.7401648776442
1020
-411.0012677033803
1030
0.0
1071
     6274
1010
-697.6435256772816
1020
-409.5692831367423
1030
0.0
1071
      130
1010
-695.5196854212115
1020
-408.1788357289931
1030
0.0
1071
     6274
1010
-693.4759758045011
1020
-406.8408486884775
1030
0.0
1071
     6274
1010
-691.416693604795
1020
-405.5253514456686
1030
0.0
1071
      130
1010
-689.325293109938
1020
-404.2632095011415
1030
0.0
1071
     6274
1010
-687.1257461914557
1020
-402.9358021338778
1030
0.0
1071
     6274
1010
-684.9068635798948
1020
-401.6382310659901
1030
0.0
1071
      130
1010
-682.6494713444204
1020
-400.411773867189
1030
0.0
1071
     6274
1010
-680.8291054221665
1020
-399.4227561613974
1030
0.0
1071
     6274
1010
-678.9585623980483
1020
-398.5285581673214
1030
0.0
1071
      130
1010
-677.0969849721389
1020
-397.6194830325734
1030
0.0
1071
     6274
1010
-675.5187394549727
1020
-396.8487690476408
1030
0.0
1071
     6274
1010
-673.9237697594217
1020
-396.1126856454187
1030
0.0
1071
      130
1010
-672.330833377997
1020
-395.372812248303
1030
0.0
1071
     6274
1010
-670.8372191602268
1020
-394.6790711559603
1030
0.0
1071
     6274
1010
-669.3520335093779
1020
-393.965492619041
1030
0.0
1071
      130
1010
-667.8374918050524
1020
-393.3187132435284
1030
0.0
1071
     6274
1010
-666.3448071274606
1020
-392.6812678296102
1030
0.0
1071
     6274
1010
-664.8379685941727
1020
-392.0745779408814
1030
0.0
1071
      130
1010
-663.3120549351584
1020
-391.5213766143506
1030
0.0
1071
     6274
1010
-661.2955605341347
1020
-390.7903212423782
1030
0.0
1071
     6274
1010
-659.2559757956876
1020
-390.1236435213112
1030
0.0
1071
      130
1010
-657.2139485147336
1020
-389.4672776095759
1030
0.0
1071
     6274
1010
-655.3613313199824
1020
-388.871793511263
1030
0.0
1071
     6274
1010
-653.5089584301968
1020
-388.270138824248
1030
0.0
1071
      130
1010
-651.6293668455024
1020
-387.7662268712468
1030
0.0
1071
     6274
1010
-649.5164227518358
1020
-387.1997539238832
1030
0.0
1071
     6274
1010
-647.3854633780782
1020
-386.6967416483822
1030
0.0
1071
      130
1010
-645.2424027525312
1020
-386.2577479146154
1030
0.0
1071
     6274
1010
-643.518508516371
1020
-385.9046180225678
1030
0.0
1071
     6274
1010
-641.7740799836582
1020
-385.6593297858653
1030
0.0
1071
      130
1010
-640.0349408248533
1020
-385.3911748969762
1030
0.0
1071
     6274
1010
-638.1657953640417
1020
-385.1029745589963
1030
0.0
1071
     6274
1010
-636.2929978671907
1020
-384.838064585172
1030
0.0
1071
      130
1010
-634.4182638586725
1020
-384.5887924732361
1030
0.0
1071
     6274
1010
-632.430692117721
1020
-384.3245170062953
1030
0.0
1071
     6274
1010
-630.4447496294677
1020
-384.0388148237177
1030
0.0
1071
      130
1010
-628.4485386260462
1020
-383.8506006433951
1030
0.0
1071
     6274
1010
-626.6984985731326
1020
-383.6855968669776
1030
0.0
1071
     6274
1010
-624.9416824363964
1020
-383.5897873516709
1030
0.0
1071
      130
1010
-623.1849099263111
1020
-383.5296476738992
1030
0.0
1071
     6274
1010
-620.8778514499272
1020
-383.4506700301953
1030
0.0
1071
     6274
1010
-618.5687595141726
1020
-383.4333617830503
1030
0.0
1071
      130
1010
-616.2603496108712
1020
-383.4333617830503
1030
0.0
1071
     6274
1010
-614.366455116334
1020
-383.4333617830503
1030
0.0
1071
     6274
1010
-612.472357899783
1020
-383.4675398906334
1030
0.0
1071
      130
1010
-610.5794820507913
1020
-383.5296476738992
1030
0.0
1071
     6274
1010
-608.8852049393965
1020
-383.5852391674895
1030
0.0
1071
     6274
1010
-607.1921038410035
1020
-383.6777459452407
1030
0.0
1071
      130
1010
-605.5004013089956
1020
-383.7864100494959
1030
0.0
1071
     6274
1010
-603.527598653453
1020
-383.913130220082
1030
0.0
1071
     6274
1010
-601.5550727114144
1020
-384.0511378194462
1030
0.0
1071
      130
1010
-599.5868428465101
1020
-384.2357442067905
1030
0.0
1071
     6274
1010
-597.6762663878608
1020
-384.4149431022371
1030
0.0
1071
     6274
1010
-595.7691068881556
1020
-384.6325964046757
1030
0.0
1071
      130
1010
-593.8658561657221
1020
-384.8776501457825
1030
0.0
1071
     6274
1010
-592.0294888954496
1020
-385.1140922836061
1030
0.0
1071
     6274
1010
-590.2021224327582
1020
-385.4158760478144
1030
0.0
1071
      130
1010
-588.3695365635815
1020
-385.6800325695226
1030
0.0
1071
     6274
1010
-585.1551323094177
1020
-386.1433701197163
1030
0.0
1071
     6274
1010
-581.931276712013
1020
-386.5441616448382
1030
0.0
1071
      130
1010
-578.7248998311836
1020
-387.0601303383556
1030
0.0
1071
     6274
1010
-575.414973492445
1020
-387.5927621630323
1030
0.0
1071
     6274
1010
-572.110783412676
1020
-388.1672823545084
1030
0.0
1071
      130
1010
-568.8235007231889
1020
-388.8253716705837
1030
0.0
1071
     6274
1010
-566.5511485107362
1020
-389.2802795244649
1030
0.0
1071
     6274
1010
-564.3025514750325
1020
-389.8477580545302
1030
0.0
1071
      130
1010
-562.0513930687387
1020
-390.3980412204853
1030
0.0
1071
     6274
1010
-559.9693733305658
1020
-390.9069793786795
1030
0.0
1071
     6274
1010
-557.9003783453388
1020
-391.4677952798776
1030
0.0
1071
      130
1010
-555.8249054605154
1020
-392.0028060679655
1030
0.0
1071
     6274
1010
-553.0860837995309
1020
-392.7088134294638
1030
0.0
1071
     6274
1010
-550.3394356159872
1020
-393.3851386609564
1030
0.0
1071
      130
1010
-547.6085094414168
1020
-394.1210956666393
1030
0.0
1071
     6274
1010
-544.7812800221268
1020
-394.8830054235468
1030
0.0
1071
     6274
1010
-541.9711917868392
1020
-395.7071611996493
1030
0.0
1071
      130
1010
-539.1513986980704
1020
-396.4961476402809
1030
0.0
1071
     6274
1010
-536.5417347019343
1020
-397.2263393397205
1030
0.0
1071
     6274
1010
-533.9215051416718
1020
-397.9193795416693
1030
0.0
1071
      130
1010
-531.320146242367
1020
-398.678627832854
1030
0.0
1071
     6274
1010
-529.4490987660479
1020
-399.2247230292916
1030
0.0
1071
     6274
1010
-527.591484656954
1020
-399.816291488298
1030
0.0
1071
      130
1010
-525.7355645731359
1020
-400.4117738681327
1030
0.0
1071
     6274
1010
-523.5901128426312
1020
-401.1001541025192
1030
0.0
1071
     6274
1010
-521.4506873708508
1020
-401.8075007601857
1030
0.0
1071
      130
1010
-519.3165051832152
1020
-402.5300634668064
1030
0.0
1071
     6274
1010
-517.5322473946947
1020
-403.134153475828
1030
0.0
1071
     6274
1010
-515.7568880206459
1020
-403.7642774033116
1030
0.0
1071
      130
1010
-513.9806620677386
1020
-404.391590689569
1030
0.0
1071
     6274
1010
-511.667389260122
1020
-405.2085738918359
1030
0.0
1071
     6274
1010
-509.3601381705624
1020
-406.0425200810329
1030
0.0
1071
      130
1010
-507.0480779266242
1020
-406.8629285546885
1030
0.0
1071
     6274
1010
-505.0486646456205
1020
-407.5723977834318
1030
0.0
1071
     6274
1010
-503.0396170434071
1020
-408.2549142396624
1030
0.0
1071
      130
1010
-501.0462573970482
1020
-408.9812181533622
1030
0.0
1071
     6274
1010
-499.0168042061449
1020
-409.7206731723883
1030
0.0
1071
     6274
1010
-496.9967610462101
1020
-410.4859415047804
1030
0.0
1071
      130
1010
-494.9802462735732
1020
-411.2599842367842
1030
0.0
1071
     6274
1010
-492.9553251328862
1020
-412.0372537679069
1030
0.0
1071
     6274
1010
-490.9377321754245
1020
-412.8335866856684
1030
0.0
1071
      130
1010
-488.9222589776886
1020
-413.6350362094822
1030
0.0
1071
     6274
1010
-485.9335009240115
1020
-414.8235108176311
1030
0.0
1071
     6274
1010
-482.9759616693057
1020
-416.0915817855313
1030
0.0
1071
      130
1010
-479.9676711287491
1020
-417.2297094678378
1030
0.0
1071
     6274
1010
-476.9515360109642
1020
-418.3708049919732
1030
0.0
1071
     6274
1010
-473.896237585572
1020
-419.4057446442022
1030
0.0
1071
      130
1010
-470.8526067950616
1020
-420.4713344597478
1030
0.0
1071
     6274
1010
-468.7929942154921
1020
-421.1924147549011
1030
0.0
1071
     6274
1010
-466.7343261564793
1020
-421.9175220628178
1030
0.0
1071
      130
1010
-464.6582144837881
1020
-422.5896240584216
1030
0.0
1071
     6274
1010
-462.8341492666027
1020
-423.1801307680116
1030
0.0
1071
     6274
1010
-461.0116868796956
1020
-423.7848364651697
1030
0.0
1071
      130
1010
-459.153871057889
1020
-424.258579499801
1030
0.0
1071
     6274
1010
-456.7290341717317
1020
-424.8769129058634
1030
0.0
1071
     6274
1010
-454.2706291398745
1020
-425.3563374298608
1030
0.0
1071
      130
1010
-451.8200957058627
1020
-425.8633443472813
1030
0.0
1071
     6274
1010
-450.0818088334573
1020
-426.2229899071166
1030
0.0
1071
     6274
1010
-448.3384601937295
1020
-426.5602321980644
1030
0.0
1071
      130
1010
-446.5885623030773
1020
-426.858298552719
1030
0.0
1071
     6274
1010
-444.5693337914187
1020
-427.2022409535297
1030
0.0
1071
     6274
1010
-442.5400888690852
1020
-427.4846270782531
1030
0.0
1071
      130
1010
-440.5145273577598
1020
-427.7890621636283
1030
0.0
1071
     6274
1010
-438.4826917130823
1020
-428.0944402301533
1030
0.0
1071
     6274
1010
-436.4506256947834
1020
-428.3985543117173
1030
0.0
1071
      130
1010
-434.4164209373351
1020
-428.6877304782174
1030
0.0
1071
     6274
1010
-432.0856156776275
1020
-429.0190704416072
1030
0.0
1071
     6274
1010
-429.7540249849412
1020
-429.3454418334217
1030
0.0
1071
      130
1010
-427.4196462023214
1020
-429.6505893867053
1030
0.0
1071
     6274
1010
-424.8433424707401
1020
-429.9873611163238
1030
0.0
1071
     6274
1010
-422.2629634570214
1020
-430.2921872470508
1030
0.0
1071
      130
1010
-419.6846796374669
1020
-430.6134482951936
1030
0.0
1071
     6274
1010
-418.0558049018028
1020
-430.8164104364845
1030
0.0
1071
     6274
1010
-416.4288613541686
1020
-431.0354439800852
1030
0.0
1071
      130
1010
-414.7981706792849
1020
-431.223258937236
1030
0.0
1071
     6274
1010
-412.9918504584361
1020
-431.4313020444327
1030
0.0
1071
     6274
1010
-411.1856080415959
1020
-431.6448068213984
1030
0.0
1071
      130
1010
-409.3740654948018
1020
-431.8009742823289
1030
0.0
1071
     6274
1010
-406.8414159568574
1020
-432.0193061390483
1030
0.0
1071
     6274
1010
-404.3038172958772
1020
-432.1763703587855
1030
0.0
1071
      130
1010
-401.7674801177457
1020
-432.3465943304722
1030
0.0
1071
     6274
1010
-401.115553581715
1020
-432.3903477892662
1030
0.0
1071
     6274
1010
-400.462740748502
1020
-432.4224533384406
1030
0.0
1071
      162
1010
-399.8096670038198
1020
-432.442880221321
1030
0.0
1070
     3
1071
-2147483635
1000
$SPLINESEGS
1070
    18
1070
    20
1000
$SPLFRAME
1070
    18
1070
     0
1000
$SPLINETYPE
1070
    18
1070
     1
1000
$SHOWCONTRPTS
1070
    18
1070
     1
1000
$CURVESMOOTH
1070
    18
1070
     1
1000
DEGREE
1070
    19
1071
        3
1000
RATIONAL
1070
    17
1070
 16640
1000
SPLINECLOSED
1070
    17
1070
 20480
1000
NPOINTS
1070
     3
1071
        0
1000
NKNOTS
1070
     3
1071
        0
1000
WEIGHTS
1070
  8204
1070
    12
1070
     8
1004
0000000000000000
1070
    16
1000
KNOTS
1070
  8204
1070
    12
1070
     8
1004
0000000000000000
1070
    16
1000
REALDEGREE
1070
    19
1071
        3
1002
}
1000
TCW_CUSTOM_DATA
1002
{
1000
#$AUX@_ToolInfo Properties
1070
     8
1000
CMD_BEZIER@
1002
}
  0
LINE
  5
6B
330
1F
100
AcDbEntity
  8
0
  6
Continuous
 62
     7
370
     0
100
AcDbLine
 10
-399.8036697532047
 20
-462.3999498878874
 30
0.0
 11
-743.7872056810731
 21
-470.5378363716079
 31
0.0
1001
TCAD
1000
TCW_CUSTOM_DATA
1002
{
1000
#$AUX@_ToolInfo Properties
1070
     8
1000
CMD_LINE@
1002
}
  0
LINE
  5
6C
330
1F
100
AcDbEntity
  8
0
  6
Continuous
 62
     7
370
     0
100
AcDbLine
 10
-603.533162402797
 20
-383.933756502054
 30
0.0
 11
-603.533162402797
 21
-406.3668263630319
 31
0.0
1001
TCAD
1000
TCW_CUSTOM_DATA
1002
{
1000
#$AUX@_ToolInfo Properties
1070
     8
1000
CMD_LINE@
1002
}
  0
LWPOLYLINE
  5
6D
330
1F
100
AcDbEntity
  8
0
  6
Continuous
 62
     7
370
     0
100
AcDbPolyline
 90
        4
 70
   129
 43
0.0
 10
-548.2510116682186
 20
-438.0849249049267
 10
-468.2510116682185
 20
-438.0849249049267
 10
-468.2510116682185
 20
-435.0849249049267
 10
-548.2510116682186
 20
-435.0849249049267
1001
TCAD
1000
TCW_CUSTOM_DATA
1002
{
1000
#$AUX@_ToolInfo Properties
1070
     8
1000
CMD_RECTANGLE@
1002
}
  0
LWPOLYLINE
  5
6E
330
1F
100
AcDbEntity
  8
0
  6
Continuous
 62
     7
370
     0
100
AcDbPolyline
 90
        4
 70
   129
 43
0.0
 10
-548.2510046739853
 20
-435.0849273044493
 10
-468.2510046739853
 20
-435.0849273044493
 10
-468.2510046739853
 20
-430.0849273044493
 10
-548.2510046739853
 20
-430.0849273044493
1001
TCAD
1000
TCW_CUSTOM_DATA
1002
{
1000
#$AUX@_ToolInfo Properties
1070
     8
1000
CMD_RECTANGLE@
1002
}
  0
LINE
  5
6F
330
1F
100
AcDbEntity
  8
0
  6
Continuous
 62
     7
370
     0
100
AcDbLine
 10
-684.8967392698573
 20
-469.0573210755854
 30
0.0
 11
-684.8967392698573
 21
-401.6594763672294
 31
0.0
1001
TCAD
1000
TCW_CUSTOM_DATA
1002
{
1000
#$AUX@_ToolInfo Properties
1070
     8
1000
CMD_LINE@
1002
}
  0
LINE
  5
70
330
1F
100
AcDbEntity
  8
0
  6
Continuous
 62
     7
370
     0
100
AcDbLine
 10
-681.8919856761593
 20
-469.0696987050333
 30
0.0
 11
-684.8919856761593
 21
-469.0696987050333
 31
0.0
1001
TCAD
1000
TCW_CUSTOM_DATA
1002
{
1000
#$AUX@_ToolInfo Properties
1070
     8
1000
CMD_LINE@
1002
}
  0
LINE
  5
71
330
1F
100
AcDbEntity
  8
0
  6
Continuous
 62
     7
370
     0
100
AcDbLine
 10
-743.7863245823681
 20
-465.5915568721584
 30
0.0
 11
-399.8058537917063
 21
-457.3447802890574
 31
0.0
1001
TCAD
1000
TCW_CUSTOM_DATA
1002
{
1000
#$AUX@_ToolInfo Properties
1070
     8
1000
CMD_LINE@
1002
}
  0
LINE
  5
72
330
1F
100
AcDbEntity
  8
0
  6
Continuous
 62
     7
370
     0
100
AcDbLine
 10
-659.9031141956566
 20
-390.2932785213965
 30
0.0
 11
-562.889204758195
 21
-390.2932785213965
 31
0.0
1001
TCAD
1000
TCW_CUSTOM_DATA
1002
{
1000
#$AUX@_ToolInfo Properties
1070
     8
1000
CMD_LINE@
1002
}
  0
LINE
  5
73
330
1F
100
AcDbEntity
  8
0
  6
Continuous
 62
     7
370
     0
100
AcDbLine
 10
-550.9432142223386
 20
-393.2744480021085
 30
0.0
 11
-667.7816188431973
 21
-393.2744480021085
 31
0.0
1001
TCAD
1000
TCW_CUSTOM_DATA
1002
{
1000
#$AUX@_ToolInfo Properties
1070
     8
1000
CMD_LINE@
1002
}
  0
LINE
  5
74
330
1F
100
AcDbEntity
  8
0
  6
Continuous
 62
     7
370
     0
100
AcDbLine
 10
-644.2409967808355
 20
-390.2948207664891
 30
0.0
 11
-644.2409967808355
 21
-386.0378038441076
 31
0.0
1001
TCAD
1000
TCW_CUSTOM_DATA
1002
{
1000
#$AUX@_ToolInfo Properties
1070
     8
1000
CMD_LINE@
1002
}
  0
LINE
  5
75
330
1F
100
AcDbEntity
  8
0
  6
Continuous
 62
     7
370
     0
100
AcDbLine
 10
-577.829638858376
 20
-387.2005863499948
 30
0.0
 11
-577.829638858376
 21
-390.2935394004507
 31
0.0
1001
TCAD
1000
TCW_CUSTOM_DATA
1002
{
1000
#$AUX@_ToolInfo Properties
1070
     8
1000
CMD_LINE@
1002
}
  0
LINE
  5
76
330
1F
100
AcDbEntity
  8
0
  6
Continuous
 62
     7
370
     0
100
AcDbLine
 10
-509.2730942948876
 20
-406.0466538776587
 30
0.0
 11
-509.2730942948876
 21
-418.7051473906357
 31
0.0
1001
TCAD
1000
TCW_CUSTOM_DATA
1002
{
1000
#$AUX@_ToolInfo Properties
1070
     8
1000
CMD_LINE@
1002
}
  0
LINE
  5
77
330
1F
100
AcDbEntity
  8
0
  6
Continuous
 62
     7
370
     0
100
AcDbLine
 10
-742.3806641056769
 20
-445.2196157278846
 30
0.0
 11
-746.8032027677457
 21
-450.1949717227118
 31
0.0
1001
TCAD
1000
TCW_CUSTOM_DATA
1002
{
1000
#$AUX@_ToolInfo Properties
1070
     8
1000
CMD_LINE@
1002
}
  0
LINE
  5
78
330
1F
100
AcDbEntity
  8
0
  6
Continuous
 62
     7
370
     0
100
AcDbLine
 10
-689.8839348156514
 20
-464.2568773747159
 30
0.0
 11
-689.8839348156514
 21
-404.5533182438679
 31
0.0
1001
TCAD
1000
TCW_CUSTOM_DATA
1002
{
1000
#$AUX@_ToolInfo Properties
1070
     8
1000
CMD_LINE@
1002
}
  0
LINE
  5
79
330
1F
100
AcDbEntity
  8
0
  6
Continuous
 62
     7
370
     0
100
AcDbLine
 10
-738.7863970241142
 20
-465.4765611728727
 30
0.0
 11
-738.7863970241142
 21
-441.3889304677912
 31
0.0
1001
TCAD
1000
TCW_CUSTOM_DATA
1002
{
1000
#$AUX@_ToolInfo Properties
1070
     8
1000
CMD_LINE@
1002
}
  0
LINE
  5
7A
330
1F
100
AcDbEntity
  8
0
  6
Continuous
 62
     7
370
     0
100
AcDbLine
 10
-404.8038603052298
 20
-457.4486312161276
 30
0.0
 11
-404.8038603052298
 21
-432.0885935069462
 31
0.0
1001
TCAD
1000
TCW_CUSTOM_DATA
1002
{
1000
#$AUX@_ToolInfo Properties
1070
     8
1000
CMD_LINE@
1002
}
  0
LINE
  5
7B
330
1F
100
AcDbEntity
  8
0
  6
Continuous
 62
     7
370
     0
100
AcDbLine
 10
-681.8967586074127
 20
-469.0758063874907
 30
0.0
 11
-681.8967586074127
 21
-401.6609269041471
 31
0.0
1001
TCAD
1000
TCW_CUSTOM_DATA
1002
{
1000
#$AUX@_ToolInfo Properties
1070
     8
1000
CMD_LINE@
1002
}
  0
LINE
  5
7C
330
1F
100
AcDbEntity
  8
0
  6
Continuous
 62
     7
370
     0
100
AcDbLine
 10
-684.8966656679783
 20
-401.6612701138795
 30
0.0
 11
-681.8965957328779
 21
-401.6612701138795
 31
0.0
1001
TCAD
1000
TCW_CUSTOM_DATA
1002
{
1000
#$AUX@_ToolInfo Properties
1070
     8
1000
CMD_LINE@
1002
}
  0
LINE
  5
7D
330
1F
100
AcDbEntity
  8
0
  6
Continuous
 62
     7
370
     0
100
AcDbLine
 10
-509.2730150109925
 20
-406.0466992711204
 30
0.0
 11
-538.3947342407921
 21
-407.4471186564478
 31
0.0
1001
TCAD
1000
TCW_CUSTOM_DATA
1002
{
1000
#$AUX@_ToolInfo Properties
1070
     8
1000
CMD_LINE@
1002
}
  0
CIRCLE
  5
7E
330
1F
100
AcDbEntity
  8
0
  6
Continuous
 62
     5
420
      255
370
     0
100
AcDbCircle
 10
-423.8321745633476
 20
-448.5404750222052
 30
0.0
 40
5.862654945854388
1001
TCAD
1000
TCW_CUSTOM_DATA
1002
{
1000
#$AUX@_ToolInfo Properties
1070
     8
1000
CMD_CENTERPTCIRCLE@
1002
}
  0
LWPOLYLINE
  5
7F
330
1F
100
AcDbEntity
  8
0
  6
Continuous
 62
     5
420
      255
370
     0
100
AcDbPolyline
 90
        4
 70
   128
 43
0.0
 10
-462.3683820999941
 20
-452.9600941255626
 10
-447.5804824576073
 20
-452.9600941255626
 10
-452.9045690819103
 20
-451.3661887748862
 10
-430.9883705101092
 20
-451.3661887748862
1001
TCAD
1000
TCW_CUSTOM_DATA
1002
{
1000
#$AUX@_ToolInfo Properties
1070
     8
1000
CMD_POLYLINE@
1002
}
  0
LWPOLYLINE
  5
80
330
1F
100
AcDbEntity
  8
0
  6
Continuous
 62
     5
420
      255
370
     0
100
AcDbPolyline
 90
        3
 70
   128
 43
0.0
 10
-462.379450888709
 20
-452.1631414502245
 10
-452.3289921497214
 20
-452.1631414502245
 10
-454.8969507702557
 20
-451.3219136262563
1001
TCAD
1000
TCW_CUSTOM_DATA
1002
{
1000
#$AUX@_ToolInfo Properties
1070
     8
1000
CMD_POLYLINE@
1002
}
  0
LWPOLYLINE
  5
81
330
1F
100
AcDbEntity
  8
0
  6
Continuous
 62
     5
420
      255
370
     0
100
AcDbPolyline
 90
        3
 70
   128
 43
0.0
 10
-431.3425716991485
 20
-453.0043692741926
 10
-445.2892435175672
 20
-453.0043692741926
 10
-449.5839329346677
 20
-451.6318396666657
1001
TCAD
1000
TCW_CUSTOM_DATA
1002
{
1000
#$AUX@_ToolInfo Properties
1070
     8
1000
CMD_POLYLINE@
1002
}
  0
LINE
  5
82
330
1F
100
AcDbEntity
  8
0
  6
Continuous
 62
     5
420
      255
370
     0
100
AcDbLine
 10
-454.8588118291036
 20
-451.341077492427
 30
0.0
 11
-462.2868412430557
 21
-451.341077492427
 31
0.0
1001
TCAD
1000
TCW_CUSTOM_DATA
1002
{
1000
#$AUX@_ToolInfo Properties
1070
     8
1000
CMD_LINE@
1002
}
  0
TEXT
  5
84
330
1F
100
AcDbEntity
  8
0
  6
Continuous
 62
     5
420
      255
100
AcDbText
 10
-427.1339286973516
 20
-451.4730327954069
 30
0.0
 40
5.776946067810059
  1
8j.
  7
_TCW_TXTSTY_2
 11
-427.1339286973516
 21
-445.6960867275968
 31
0.0
100
AcDbText
 73
     3
1001
TCAD
1000
TCW40_TEXT
1002
{
1000
Times New Roman
1070
     0
1070
   257
1002
}
1000
TCW_CUSTOM_DATA
1002
{
1000
#$AUX@_ToolInfo Properties
1070
     8
1000
CMD_TEXT@
1002
}
  0
MTEXT
  5
86
330
1F
100
AcDbEntity
  8
0
  6
Continuous
 62
     7
100
AcDbMText
 10
-461.2526460316635
 20
-544.60316577523
 30
0.0
 40
3.522528076171875
 41
60.20518770813942
 71
     1
 72
     1
  1
{SPRINGER    OSZTБLYЪ \PTOLУHAJУ R/C Modellje\PM1:1\PSRY MODELL 2008\Pfile : walrus02.tcw\PA/3 -ban nyomtathatу}
  7
_TCW_TXTSTY_3
 73
     1
 44
1.0
1001
TCAD
1000
TCW40_TEXT
1002
{
1000
Times New Roman
1070
     0
1070
   257
1002
}
1000
TCW_CUSTOM_DATA
1002
{
1000
#$AUX@_ToolInfo Properties
1070
     8
1000
CMD_TEXT@
1002
}
  0
LWPOLYLINE
  5
87
330
1F
100
AcDbEntity
  8
0
  6
Continuous
 62
     7
370
     0
100
AcDbPolyline
 90
        4
 70
   129
 43
0.0
 10
-463.0499268009318
 20
-542.4132971299448
 10
-400.5267890395773
 20
-542.4132971299448
 10
-400.5267890395773
 20
-579.0734501948352
 10
-463.0499268009318
 20
-579.0734501948352
1001
TCAD
1000
TCW_CUSTOM_DATA
1002
{
1000
#$AUX@_ToolInfo Properties
1070
     8
1000
CMD_RECTANGLE@
1002
}
  0
LINE
  5
88
330
1F
100
AcDbEntity
  8
0
  6
Continuous
 62
     7
370
     0
100
AcDbLine
 10
-461.0411512905268
 20
-549.0673660081611
 30
0.0
 11
-402.5355645499823
 21
-549.0673660081611
 31
0.0
1001
TCAD
1000
TCW_CUSTOM_DATA
1002
{
1000
#$AUX@_ToolInfo Properties
1070
     8
1000
CMD_LINE@
1002
}
  0
MTEXT
  5
89
330
1F
100
AcDbEntity
  8
0
  6
Continuous
 62
     5
420
      255
100
AcDbMText
 10
-531.6667595537991
 20
-568.5495806908775
 30
0.0
 40
3.522528076171875
 41
64.78894616663456
 71
     1
 72
     1
  1
{8j.:Hajуtest tцrzsoldal (jobb)\P8b.:Hajуtest tцrzsoldal (ball)   }
  7
_TCW_TXTSTY_3
 73
     1
 44
1.0
1001
TCAD
1000
TCW40_TEXT
1002
{
1000
Times New Roman
1070
     0
1070
   257
1002
}
1000
TCW_CUSTOM_DATA
1002
{
1000
#$AUX@_ToolInfo Properties
1070
     8
1000
CMD_TEXT@
1002
}
  0
LINE
  5
8A
330
1F
100
AcDbEntity
  8
0
  6
Continuous
 62
     7
370
     0
100
AcDbLine
 10
-751.0
 20
-375.8741072612289
 30
0.0
 11
-401.0
 21
-375.8741072612289
 31
0.0
1001
TCAD
1000
TCW_CUSTOM_DATA
1002
{
1000
#$AUX@_ToolInfo Properties
1070
     8
1000
CMD_LINE@
1002
}
  0
LINE
  5
8B
330
1F
100
AcDbEntity
  8
0
  6
Continuous
 62
     7
370
     0
100
AcDbLine
 10
-751.0
 20
-370.8741072612289
 30
0.0
 11
-751.0
 21
-375.8741072612289
 31
0.0
1001
TCAD
1000
TCW_CUSTOM_DATA
1002
{
1000
#$AUX@_ToolInfo Properties
1070
     8
1000
CMD_LINE@
1002
}
  0
LINE
  5
8C
330
1F
100
AcDbEntity
  8
0
  6
Continuous
 62
     7
370
     0
100
AcDbLine
 10
-701.0
 20
-370.8741072612289
 30
0.0
 11
-701.0
 21
-375.8741072612289
 31
0.0
1001
TCAD
1000
TCW_CUSTOM_DATA
1002
{
1000
#$AUX@_ToolInfo Properties
1070
     8
1000
CMD_LINE@
1002
}
  0
LINE
  5
8D
330
1F
100
AcDbEntity
  8
0
  6
Continuous
 62
     7
370
     0
100
AcDbLine
 10
-651.0
 20
-370.8741072612289
 30
0.0
 11
-651.0
 21
-375.8741072612289
 31
0.0
1001
TCAD
1000
TCW_CUSTOM_DATA
1002
{
1000
#$AUX@_ToolInfo Properties
1070
     8
1000
CMD_LINE@
1002
}
  0
LINE
  5
8E
330
1F
100
AcDbEntity
  8
0
  6
Continuous
 62
     7
370
     0
100
AcDbLine
 10
-601.0
 20
-370.8741072612289
 30
0.0
 11
-601.0
 21
-375.8741072612289
 31
0.0
1001
TCAD
1000
TCW_CUSTOM_DATA
1002
{
1000
#$AUX@_ToolInfo Properties
1070
     8
1000
CMD_LINE@
1002
}
  0
LINE
  5
8F
330
1F
100
AcDbEntity
  8
0
  6
Continuous
 62
     7
370
     0
100
AcDbLine
 10
-551.0
 20
-370.8741072612289
 30
0.0
 11
-551.0
 21
-375.8741072612289
 31
0.0
1001
TCAD
1000
TCW_CUSTOM_DATA
1002
{
1000
#$AUX@_ToolInfo Properties
1070
     8
1000
CMD_LINE@
1002
}
  0
LINE
  5
90
330
1F
100
AcDbEntity
  8
0
  6
Continuous
 62
     7
370
     0
100
AcDbLine
 10
-501.0
 20
-370.8741072612289
 30
0.0
 11
-501.0
 21
-375.8741072612289
 31
0.0
1001
TCAD
1000
TCW_CUSTOM_DATA
1002
{
1000
#$AUX@_ToolInfo Properties
1070
     8
1000
CMD_LINE@
1002
}
  0
LINE
  5
91
330
1F
100
AcDbEntity
  8
0
  6
Continuous
 62
     7
370
     0
100
AcDbLine
 10
-451.0
 20
-370.8741072612289
 30
0.0
 11
-451.0
 21
-375.8741072612289
 31
0.0
1001
TCAD
1000
TCW_CUSTOM_DATA
1002
{
1000
#$AUX@_ToolInfo Properties
1070
     8
1000
CMD_LINE@
1002
}
  0
LINE
  5
92
330
1F
100
AcDbEntity
  8
0
  6
Continuous
 62
     7
370
     0
100
AcDbLine
 10
-401.0
 20
-370.8741072612289
 30
0.0
 11
-401.0
 21
-375.8741072612289
 31
0.0
1001
TCAD
1000
TCW_CUSTOM_DATA
1002
{
1000
#$AUX@_ToolInfo Properties
1070
     8
1000
CMD_LINE@
1002
}
  0
TEXT
  5
93
330
1F
100
AcDbEntity
  8
0
  6
Continuous
 62
     7
100
AcDbText
 10
-405.1709471682008
 20
-375.3128378941753
 30
0.0
 40
5.081785583496093
  1
0
  7
_TCW_TXTSTY_3
 11
-405.1709471682008
 21
-370.2310523106793
 31
0.0
100
AcDbText
 73
     3
1001
TCAD
1000
TCW40_TEXT
1002
{
1000
Times New Roman
1070
     0
1070
   257
1002
}
1000
TCW_CUSTOM_DATA
1002
{
1000
#$AUX@_ToolInfo Properties
1070
     8
1000
CMD_TEXT@
1002
}
  0
TEXT
  5
95
330
1F
100
AcDbEntity
  8
0
  6
Continuous
 62
     7
100
AcDbText
 10
-459.2218400662804
 20
-375.4039093194044
 30
0.0
 40
5.081785583496093
  1
50
  7
_TCW_TXTSTY_4
 11
-459.2218400662804
 21
-370.3221237359083
 31
0.0
100
AcDbText
 73
     3
1001
TCAD
1000
TCW40_TEXT
1002
{
1000
Times New Roman
1070
     0
1070
   257
1002
}
1000
TCW_CUSTOM_DATA
1002
{
1000
#$AUX@_ToolInfo Properties
1070
     8
1000
CMD_TEXT@
1002
}
  0
TEXT
  5
97
330
1F
100
AcDbEntity
  8
0
  6
Continuous
 62
     7
100
AcDbText
 10
-512.7035364934038
 20
-375.494980747985
 30
0.0
 40
5.081785583496093
  1
100
  7
_TCW_TXTSTY_5
 11
-512.7035364934038
 21
-370.4131951644889
 31
0.0
100
AcDbText
 73
     3
1001
TCAD
1000
TCW40_TEXT
1002
{
1000
Times New Roman
1070
     0
1070
   257
1002
}
1000
TCW_CUSTOM_DATA
1002
{
1000
#$AUX@_ToolInfo Properties
1070
     8
1000
CMD_TEXT@
1002
}
  0
TEXT
  5
99
330
1F
100
AcDbEntity
  8
0
  6
Continuous
 62
     7
100
AcDbText
 10
-562.7700543514759
 20
-375.4039093194044
 30
0.0
 40
5.081785583496093
  1
150
  7
_TCW_TXTSTY_6
 11
-562.7700543514759
 21
-370.3221237359083
 31
0.0
100
AcDbText
 73
     3
1001
TCAD
1000
TCW40_TEXT
1002
{
1000
Times New Roman
1070
     0
1070
   257
1002
}
1000
TCW_CUSTOM_DATA
1002
{
1000
#$AUX@_ToolInfo Properties
1070
     8
1000
CMD_TEXT@
1002
}
  0
TEXT
  5
9B
330
1F
100
AcDbEntity
  8
0
  6
Continuous
 62
     7
100
AcDbText
 10
-612.768268636753
 20
-375.4949807479849
 30
0.0
 40
5.081785583496093
  1
200
  7
_TCW_TXTSTY_7
 11
-612.768268636753
 21
-370.4131951644889
 31
0.0
100
AcDbText
 73
     3
1001
TCAD
1000
TCW40_TEXT
1002
{
1000
Times New Roman
1070
     0
1070
   257
1002
}
1000
TCW_CUSTOM_DATA
1002
{
1000
#$AUX@_ToolInfo Properties
1070
     8
1000
CMD_TEXT@
1002
}
  0
TEXT
  5
9D
330
1F
100
AcDbEntity
  8
0
  6
Continuous
 62
     7
100
AcDbText
 10
-662.8803222063966
 20
-375.4039093194045
 30
0.0
 40
5.081785583496093
  1
250
  7
_TCW_TXTSTY_8
 11
-662.8803222063966
 21
-370.3221237359084
 31
0.0
100
AcDbText
 73
     3
1001
TCAD
1000
TCW40_TEXT
1002
{
1000
Times New Roman
1070
     0
1070
   257
1002
}
1000
TCW_CUSTOM_DATA
1002
{
1000
#$AUX@_ToolInfo Properties
1070
     8
1000
CMD_TEXT@
1002
}
  0
TEXT
  5
9F
330
1F
100
AcDbEntity
  8
0
  6
Continuous
 62
     7
100
AcDbText
 10
-712.6963936399496
 20
-375.4039093194044
 30
0.0
 40
5.081785583496093
  1
300
  7
_TCW_TXTSTY_9
 11
-712.6963936399496
 21
-370.3221237359083
 31
0.0
100
AcDbText
 73
     3
1001
TCAD
1000
TCW40_TEXT
1002
{
1000
Times New Roman
1070
     0
1070
   257
1002
}
1000
TCW_CUSTOM_DATA
1002
{
1000
#$AUX@_ToolInfo Properties
1070
     8
1000
CMD_TEXT@
1002
}
  0
LINE
  5
A0
330
1F
100
AcDbEntity
  8
0
  6
Continuous
 62
     7
370
     0
100
AcDbLine
 10
-751.0
 20
-484.0669644149053
 30
0.0
 11
-401.0
 21
-484.0669644149053
 31
0.0
1001
TCAD
1000
TCW_CUSTOM_DATA
1002
{
1000
#$AUX@_ToolInfo Properties
1070
     8
1000
CMD_LINE@
1002
}
  0
LINE
  5
A1
330
1F
100
AcDbEntity
  8
0
  6
Continuous
 62
     7
370
     0
100
AcDbLine
 10
-751.0
 20
-479.0669644149053
 30
0.0
 11
-751.0
 21
-484.0669644149053
 31
0.0
1001
TCAD
1000
TCW_CUSTOM_DATA
1002
{
1000
#$AUX@_ToolInfo Properties
1070
     8
1000
CMD_LINE@
1002
}
  0
LINE
  5
A2
330
1F
100
AcDbEntity
  8
0
  6
Continuous
 62
     7
370
     0
100
AcDbLine
 10
-701.0
 20
-479.0669644149053
 30
0.0
 11
-701.0
 21
-484.0669644149053
 31
0.0
1001
TCAD
1000
TCW_CUSTOM_DATA
1002
{
1000
#$AUX@_ToolInfo Properties
1070
     8
1000
CMD_LINE@
1002
}
  0
LINE
  5
A3
330
1F
100
AcDbEntity
  8
0
  6
Continuous
 62
     7
370
     0
100
AcDbLine
 10
-651.0
 20
-479.0669644149053
 30
0.0
 11
-651.0
 21
-484.0669644149053
 31
0.0
1001
TCAD
1000
TCW_CUSTOM_DATA
1002
{
1000
#$AUX@_ToolInfo Properties
1070
     8
1000
CMD_LINE@
1002
}
  0
LINE
  5
A4
330
1F
100
AcDbEntity
  8
0
  6
Continuous
 62
     7
370
     0
100
AcDbLine
 10
-601.0
 20
-479.0669644149053
 30
0.0
 11
-601.0
 21
-484.0669644149053
 31
0.0
1001
TCAD
1000
TCW_CUSTOM_DATA
1002
{
1000
#$AUX@_ToolInfo Properties
1070
     8
1000
CMD_LINE@
1002
}
  0
LINE
  5
A5
330
1F
100
AcDbEntity
  8
0
  6
Continuous
 62
     7
370
     0
100
AcDbLine
 10
-551.0
 20
-479.0669644149053
 30
0.0
 11
-551.0
 21
-484.0669644149053
 31
0.0
1001
TCAD
1000
TCW_CUSTOM_DATA
1002
{
1000
#$AUX@_ToolInfo Properties
1070
     8
1000
CMD_LINE@
1002
}
  0
LINE
  5
A6
330
1F
100
AcDbEntity
  8
0
  6
Continuous
 62
     7
370
     0
100
AcDbLine
 10
-501.0
 20
-479.0669644149053
 30
0.0
 11
-501.0
 21
-484.0669644149053
 31
0.0
1001
TCAD
1000
TCW_CUSTOM_DATA
1002
{
1000
#$AUX@_ToolInfo Properties
1070
     8
1000
CMD_LINE@
1002
}
  0
LINE
  5
A7
330
1F
100
AcDbEntity
  8
0
  6
Continuous
 62
     7
370
     0
100
AcDbLine
 10
-451.0
 20
-479.0669644149053
 30
0.0
 11
-451.0
 21
-484.0669644149053
 31
0.0
1001
TCAD
1000
TCW_CUSTOM_DATA
1002
{
1000
#$AUX@_ToolInfo Properties
1070
     8
1000
CMD_LINE@
1002
}
  0
LINE
  5
A8
330
1F
100
AcDbEntity
  8
0
  6
Continuous
 62
     7
370
     0
100
AcDbLine
 10
-401.0
 20
-479.0669644149053
 30
0.0
 11
-401.0
 21
-484.0669644149053
 31
0.0
1001
TCAD
1000
TCW_CUSTOM_DATA
1002
{
1000
#$AUX@_ToolInfo Properties
1070
     8
1000
CMD_LINE@
1002
}
  0
TEXT
  5
AA
330
1F
100
AcDbEntity
  8
0
  6
Continuous
 62
     7
100
AcDbText
 10
-405.1709471682008
 20
-483.5056950478518
 30
0.0
 40
5.081785583496093
  1
0
  7
_TCW_TXTSTY_A
 11
-405.1709471682008
 21
-478.4239094643557
 31
0.0
100
AcDbText
 73
     3
1001
TCAD
1000
TCW40_TEXT
1002
{
1000
Times New Roman
1070
     0
1070
   257
1002
}
1000
TCW_CUSTOM_DATA
1002
{
1000
#$AUX@_ToolInfo Properties
1070
     8
1000
CMD_TEXT@
1002
}
  0
TEXT
  5
AC
330
1F
100
AcDbEntity
  8
0
  6
Continuous
 62
     7
100
AcDbText
 10
-459.2218400662804
 20
-483.5967664730809
 30
0.0
 40
5.081785583496093
  1
50
  7
_TCW_TXTSTY_B
 11
-459.2218400662804
 21
-478.5149808895848
 31
0.0
100
AcDbText
 73
     3
1001
TCAD
1000
TCW40_TEXT
1002
{
1000
Times New Roman
1070
     0
1070
   257
1002
}
1000
TCW_CUSTOM_DATA
1002
{
1000
#$AUX@_ToolInfo Properties
1070
     8
1000
CMD_TEXT@
1002
}
  0
TEXT
  5
AE
330
1F
100
AcDbEntity
  8
0
  6
Continuous
 62
     7
100
AcDbText
 10
-512.7035364934038
 20
-483.6878379016615
 30
0.0
 40
5.081785583496093
  1
100
  7
_TCW_TXTSTY_C
 11
-512.7035364934038
 21
-478.6060523181654
 31
0.0
100
AcDbText
 73
     3
1001
TCAD
1000
TCW40_TEXT
1002
{
1000
Times New Roman
1070
     0
1070
   257
1002
}
1000
TCW_CUSTOM_DATA
1002
{
1000
#$AUX@_ToolInfo Properties
1070
     8
1000
CMD_TEXT@
1002
}
  0
TEXT
  5
B0
330
1F
100
AcDbEntity
  8
0
  6
Continuous
 62
     7
100
AcDbText
 10
-562.7700543514759
 20
-483.5967664730809
 30
0.0
 40
5.081785583496093
  1
150
  7
_TCW_TXTSTY_D
 11
-562.7700543514759
 21
-478.5149808895848
 31
0.0
100
AcDbText
 73
     3
1001
TCAD
1000
TCW40_TEXT
1002
{
1000
Times New Roman
1070
     0
1070
   257
1002
}
1000
TCW_CUSTOM_DATA
1002
{
1000
#$AUX@_ToolInfo Properties
1070
     8
1000
CMD_TEXT@
1002
}
  0
TEXT
  5
B2
330
1F
100
AcDbEntity
  8
0
  6
Continuous
 62
     7
100
AcDbText
 10
-612.768268636753
 20
-483.6878379016614
 30
0.0
 40
5.081785583496093
  1
200
  7
_TCW_TXTSTY_E
 11
-612.768268636753
 21
-478.6060523181653
 31
0.0
100
AcDbText
 73
     3
1001
TCAD
1000
TCW40_TEXT
1002
{
1000
Times New Roman
1070
     0
1070
   257
1002
}
1000
TCW_CUSTOM_DATA
1002
{
1000
#$AUX@_ToolInfo Properties
1070
     8
1000
CMD_TEXT@
1002
}
  0
TEXT
  5
B4
330
1F
100
AcDbEntity
  8
0
  6
Continuous
 62
     7
100
AcDbText
 10
-662.8803222063966
 20
-483.5967664730809
 30
0.0
 40
5.081785583496093
  1
250
  7
_TCW_TXTSTY_F
 11
-662.8803222063966
 21
-478.5149808895849
 31
0.0
100
AcDbText
 73
     3
1001
TCAD
1000
TCW40_TEXT
1002
{
1000
Times New Roman
1070
     0
1070
   257
1002
}
1000
TCW_CUSTOM_DATA
1002
{
1000
#$AUX@_ToolInfo Properties
1070
     8
1000
CMD_TEXT@
1002
}
  0
TEXT
  5
B6
330
1F
100
AcDbEntity
  8
0
  6
Continuous
 62
     7
100
AcDbText
 10
-712.6963936399496
 20
-483.5967664730809
 30
0.0
 40
5.081785583496093
  1
300
  7
_TCW_TXTSTY_10
 11
-712.6963936399496
 21
-478.5149808895848
 31
0.0
100
AcDbText
 73
     3
1001
TCAD
1000
TCW40_TEXT
1002
{
1000
Times New Roman
1070
     0
1070
   257
1002
}
1000
TCW_CUSTOM_DATA
1002
{
1000
#$AUX@_ToolInfo Properties
1070
     8
1000
CMD_TEXT@
1002
}
  0
LINE
  5
B7
330
1F
100
AcDbEntity
  8
0
  6
Continuous
 62
     7
370
     0
100
AcDbLine
 10
-751.0
 20
-589.3455358396882
 30
0.0
 11
-401.0
 21
-589.3455358396882
 31
0.0
1001
TCAD
1000
TCW_CUSTOM_DATA
1002
{
1000
#$AUX@_ToolInfo Properties
1070
     8
1000
CMD_LINE@
1002
}
  0
LINE
  5
B8
330
1F
100
AcDbEntity
  8
0
  6
Continuous
 62
     7
370
     0
100
AcDbLine
 10
-751.0
 20
-584.3455358396882
 30
0.0
 11
-751.0
 21
-589.3455358396882
 31
0.0
1001
TCAD
1000
TCW_CUSTOM_DATA
1002
{
1000
#$AUX@_ToolInfo Properties
1070
     8
1000
CMD_LINE@
1002
}
  0
LINE
  5
B9
330
1F
100
AcDbEntity
  8
0
  6
Continuous
 62
     7
370
     0
100
AcDbLine
 10
-701.0
 20
-584.3455358396882
 30
0.0
 11
-701.0
 21
-589.3455358396882
 31
0.0
1001
TCAD
1000
TCW_CUSTOM_DATA
1002
{
1000
#$AUX@_ToolInfo Properties
1070
     8
1000
CMD_LINE@
1002
}
  0
LINE
  5
BA
330
1F
100
AcDbEntity
  8
0
  6
Continuous
 62
     7
370
     0
100
AcDbLine
 10
-651.0
 20
-584.3455358396882
 30
0.0
 11
-651.0
 21
-589.3455358396882
 31
0.0
1001
TCAD
1000
TCW_CUSTOM_DATA
1002
{
1000
#$AUX@_ToolInfo Properties
1070
     8
1000
CMD_LINE@
1002
}
  0
LINE
  5
BB
330
1F
100
AcDbEntity
  8
0
  6
Continuous
 62
     7
370
     0
100
AcDbLine
 10
-601.0
 20
-584.3455358396882
 30
0.0
 11
-601.0
 21
-589.3455358396882
 31
0.0
1001
TCAD
1000
TCW_CUSTOM_DATA
1002
{
1000
#$AUX@_ToolInfo Properties
1070
     8
1000
CMD_LINE@
1002
}
  0
LINE
  5
BC
330
1F
100
AcDbEntity
  8
0
  6
Continuous
 62
     7
370
     0
100
AcDbLine
 10
-551.0
 20
-584.3455358396882
 30
0.0
 11
-551.0
 21
-589.3455358396882
 31
0.0
1001
TCAD
1000
TCW_CUSTOM_DATA
1002
{
1000
#$AUX@_ToolInfo Properties
1070
     8
1000
CMD_LINE@
1002
}
  0
LINE
  5
BD
330
1F
100
AcDbEntity
  8
0
  6
Continuous
 62
     7
370
     0
100
AcDbLine
 10
-501.0
 20
-584.3455358396882
 30
0.0
 11
-501.0
 21
-589.3455358396882
 31
0.0
1001
TCAD
1000
TCW_CUSTOM_DATA
1002
{
1000
#$AUX@_ToolInfo Properties
1070
     8
1000
CMD_LINE@
1002
}
  0
LINE
  5
BE
330
1F
100
AcDbEntity
  8
0
  6
Continuous
 62
     7
370
     0
100
AcDbLine
 10
-451.0
 20
-584.3455358396882
 30
0.0
 11
-451.0
 21
-589.3455358396882
 31
0.0
1001
TCAD
1000
TCW_CUSTOM_DATA
1002
{
1000
#$AUX@_ToolInfo Properties
1070
     8
1000
CMD_LINE@
1002
}
  0
LINE
  5
BF
330
1F
100
AcDbEntity
  8
0
  6
Continuous
 62
     7
370
     0
100
AcDbLine
 10
-401.0
 20
-584.3455358396882
 30
0.0
 11
-401.0
 21
-589.3455358396882
 31
0.0
1001
TCAD
1000
TCW_CUSTOM_DATA
1002
{
1000
#$AUX@_ToolInfo Properties
1070
     8
1000
CMD_LINE@
1002
}
  0
TEXT
  5
C1
330
1F
100
AcDbEntity
  8
0
  6
Continuous
 62
     7
100
AcDbText
 10
-405.1709471682008
 20
-588.7842664726346
 30
0.0
 40
5.081785583496093
  1
0
  7
_TCW_TXTSTY_11
 11
-405.1709471682008
 21
-583.7024808891385
 31
0.0
100
AcDbText
 73
     3
1001
TCAD
1000
TCW40_TEXT
1002
{
1000
Times New Roman
1070
     0
1070
   257
1002
}
1000
TCW_CUSTOM_DATA
1002
{
1000
#$AUX@_ToolInfo Properties
1070
     8
1000
CMD_TEXT@
1002
}
  0
TEXT
  5
C3
330
1F
100
AcDbEntity
  8
0
  6
Continuous
 62
     7
100
AcDbText
 10
-459.2218400662804
 20
-588.8753378978637
 30
0.0
 40
5.081785583496093
  1
50
  7
_TCW_TXTSTY_12
 11
-459.2218400662804
 21
-583.7935523143676
 31
0.0
100
AcDbText
 73
     3
1001
TCAD
1000
TCW40_TEXT
1002
{
1000
Times New Roman
1070
     0
1070
   257
1002
}
1000
TCW_CUSTOM_DATA
1002
{
1000
#$AUX@_ToolInfo Properties
1070
     8
1000
CMD_TEXT@
1002
}
  0
TEXT
  5
C5
330
1F
100
AcDbEntity
  8
0
  6
Continuous
 62
     7
100
AcDbText
 10
-512.7035364934039
 20
-588.9664093264442
 30
0.0
 40
5.081785583496093
  1
100
  7
_TCW_TXTSTY_13
 11
-512.7035364934039
 21
-583.8846237429482
 31
0.0
100
AcDbText
 73
     3
1001
TCAD
1000
TCW40_TEXT
1002
{
1000
Times New Roman
1070
     0
1070
   257
1002
}
1000
TCW_CUSTOM_DATA
1002
{
1000
#$AUX@_ToolInfo Properties
1070
     8
1000
CMD_TEXT@
1002
}
  0
TEXT
  5
C7
330
1F
100
AcDbEntity
  8
0
  6
Continuous
 62
     7
100
AcDbText
 10
-562.7700543514759
 20
-588.8753378978637
 30
0.0
 40
5.081785583496093
  1
150
  7
_TCW_TXTSTY_14
 11
-562.7700543514759
 21
-583.7935523143676
 31
0.0
100
AcDbText
 73
     3
1001
TCAD
1000
TCW40_TEXT
1002
{
1000
Times New Roman
1070
     0
1070
   257
1002
}
1000
TCW_CUSTOM_DATA
1002
{
1000
#$AUX@_ToolInfo Properties
1070
     8
1000
CMD_TEXT@
1002
}
  0
TEXT
  5
C9
330
1F
100
AcDbEntity
  8
0
  6
Continuous
 62
     7
100
AcDbText
 10
-612.768268636753
 20
-588.9664093264442
 30
0.0
 40
5.081785583496093
  1
200
  7
_TCW_TXTSTY_15
 11
-612.768268636753
 21
-583.8846237429482
 31
0.0
100
AcDbText
 73
     3
1001
TCAD
1000
TCW40_TEXT
1002
{
1000
Times New Roman
1070
     0
1070
   257
1002
}
1000
TCW_CUSTOM_DATA
1002
{
1000
#$AUX@_ToolInfo Properties
1070
     8
1000
CMD_TEXT@
1002
}
  0
TEXT
  5
CB
330
1F
100
AcDbEntity
  8
0
  6
Continuous
 62
     7
100
AcDbText
 10
-662.8803222063966
 20
-588.8753378978637
 30
0.0
 40
5.081785583496093
  1
250
  7
_TCW_TXTSTY_16
 11
-662.8803222063966
 21
-583.7935523143676
 31
0.0
100
AcDbText
 73
     3
1001
TCAD
1000
TCW40_TEXT
1002
{
1000
Times New Roman
1070
     0
1070
   257
1002
}
1000
TCW_CUSTOM_DATA
1002
{
1000
#$AUX@_ToolInfo Properties
1070
     8
1000
CMD_TEXT@
1002
}
  0
TEXT
  5
CD
330
1F
100
AcDbEntity
  8
0
  6
Continuous
 62
     7
100
AcDbText
 10
-712.6963936399496
 20
-588.8753378978637
 30
0.0
 40
5.081785583496093
  1
300
  7
_TCW_TXTSTY_17
 11
-712.6963936399496
 21
-583.7935523143676
 31
0.0
100
AcDbText
 73
     3
1001
TCAD
1000
TCW40_TEXT
1002
{
1000
Times New Roman
1070
     0
1070
   257
1002
}
1000
TCW_CUSTOM_DATA
1002
{
1000
#$AUX@_ToolInfo Properties
1070
     8
1000
CMD_TEXT@
1002
}
  0
MTEXT
  5
CF
330
1F
100
AcDbEntity
  8
0
  6
Continuous
 62
     5
420
      255
100
AcDbMText
 10
-749.7638452606772
 20
-596.5284002987461
 30
0.0
 40
3.522528076171875
 41
226.1349505931139
 71
     1
 72
     1
  3
{** A rajz 2 db. A/4 lapra is kinyomtathatу, majd az alkatrйszek felett, йs alatt lйv\U+0151 mйretlйcek segнtsйgйvel\Pцsszeilleszthet\U+0151 a kйt rajzfйl, йs ragasztуszalaggal цsszekapcsolhatу, нgy nincs szьksйg speciбlis A/3 \Pformбtumъ nyomtatуra.
  1
**}
  7
_TCW_TXTSTY_18
 73
     1
 44
1.0
1001
TCAD
1000
TCW40_TEXT
1002
{
1000
Times New Roman
1070
     0
1070
   257
1002
}
1000
TCW_CUSTOM_DATA
1002
{
1000
#$AUX@_ToolInfo Properties
1070
     8
1000
CMD_TEXT@
1002
}
  0
TCPOINTENTITY
  5
D0
330
1F
100
AcDbEntity
  8
0
  6
Continuous
 62
     7
 92
       92
310
5C00000001000000540000002000000002000000203EF95DBCE276C0528530BBEC667EC00000000000000000203EF95DBCE276C0528530BBEC667EC0000000000000000000000000000000000000000000000000000000000000F03F
100
AcDbPoint
 10
-366.1709880577127
 20
-486.4327957053512
 30
0.0
100
TcPointEntity
 70
     1
 71
     0
 40
0.25
1001
TCAD
1000
TC25ExternalObject
1002
{
1000
TCW30POINT
1000

1070
     0
1071
        0
1040
1.0
1040
0.0
1000
Continuous
1000
0
1071
        1
1071
      242
1010
-366.1709880577127
1020
-486.4327957053512
1030
0.0
1070
     3
1071
-2147483645
1000
$POINTSIZE
1070
     5
1040
0.25
1000
$POINTTYPE
1070
    18
1070
     0
1000
ExplodeScale
1070
     5
1040
1.0
1002
}
1000
TCW_CUSTOM_DATA
1002
{
1000
#$AUX@_ToolInfo Properties
1070
     8
1000
CMD_DOTPOINT@
1002
}
  0
ENDSEC
  0
SECTION
  2
OBJECTS
  0
DICTIONARY
  5
C
330
0
100
AcDbDictionary
281
     1
  3
ACAD_GROUP
350
D
  3
ACAD_LAYOUT
350
1A
  3
ACAD_MLINESTYLE
350
17
  3
ACAD_PLOTSETTINGS
350
19
  3
ACAD_PLOTSTYLENAME
350
E
  0
DICTIONARY
  5
D
102
{ACAD_REACTORS
330
C
102
}
330
C
100
AcDbDictionary
281
     1
  0
DICTIONARY
  5
1A
102
{ACAD_REACTORS
330
C
102
}
330
C
100
AcDbDictionary
281
     1
  3
Model
350
22
  3
Paper 1
350
1E
  0
DICTIONARY
  5
17
102
{ACAD_REACTORS
330
C
102
}
330
C
100
AcDbDictionary
281
     1
  3
Standard
350
18
  0
DICTIONARY
  5
19
102
{ACAD_REACTORS
330
C
102
}
330
C
100
AcDbDictionary
281
     1
  0
ACDBDICTIONARYWDFLT
  5
E
102
{ACAD_REACTORS
330
C
102
}
330
C
100
AcDbDictionary
281
     1
  3
Normal
350
F
100
AcDbDictionaryWithDefault
340
F
  0
LAYOUT
  5
22
102
{ACAD_REACTORS
330
1A
102
}
330
1A
100
AcDbPlotSettings
  1

  2
none_device
  4

  6

 40
7.0
 41
7.0
 42
7.0
 43
7.0
 44
420.0
 45
297.0
 46
769.3102737932363
 47
625.0185099764576
 48
0.0
 49
0.0
140
0.0
141
0.0
142
1.0
143
1.0
 70
  1712
 72
     1
 73
     0
 74
     0
  7

 75
     0
 76
     0
 77
     2
 78
   300
147
1.0
148
0.0
149
0.0
100
AcDbLayout
  1
Model
 70
     1
 71
     0
 10
-776.3102737932363
 20
-632.0185099764576
 11
-356.3102737932363
 21
-335.0185099764576
 12
0.0
 22
0.0
 32
0.0
 14
-776.3102737932363
 24
-632.0185099764576
 34
0.0
 15
-356.3102737932363
 25
-335.0185099764576
 35
0.0
146
0.0
 13
0.0
 23
0.0
 33
0.0
 16
1.0
 26
0.0
 36
0.0
 17
0.0
 27
1.0
 37
0.0
 76
     0
330
1F
  0
LAYOUT
  5
1E
102
{ACAD_REACTORS
330
1A
102
}
330
1A
100
AcDbPlotSettings
  1

  2
none_device
  4

  6

 40
7.0
 41
7.0
 42
7.0
 43
7.0
 44
297.0
 45
210.0
 46
-7.0
 47
-7.0
 48
0.0
 49
0.0
140
0.0
141
0.0
142
1.0
143
1.0
 70
   688
 72
     1
 73
     0
 74
     5
  7

 75
    16
 76
     0
 77
     2
 78
   300
147
1.0
148
0.0
149
0.0
100
AcDbLayout
  1
Paper 1
 70
     1
 71
     1
 10
0.0
 20
0.0
 11
297.0
 21
210.0
 12
0.0
 22
0.0
 32
0.0
 14
0.0
 24
0.0
 34
0.0
 15
297.0
 25
210.0
 35
0.0
146
0.0
 13
0.0
 23
0.0
 33
0.0
 16
1.0
 26
0.0
 36
0.0
 17
0.0
 27
1.0
 37
0.0
 76
     0
330
1B
  0
MLINESTYLE
  5
18
102
{ACAD_REACTORS
330
17
102
}
330
17
100
AcDbMlineStyle
  2
Standard
 70
     0
  3

 62
   256
 51
90.0
 52
90.0
 71
     5
 49
0.5
 62
   256
  6
BYLAYER
 49
-0.5
 62
   256
  6
BYLAYER
 49
0.25
 62
     7
  6
BYLAYER
 49
0.0
 62
     7
  6
BYLAYER
 49
-0.25
 62
     7
  6
BYLAYER
  0
ACDBPLACEHOLDER
  5
F
102
{ACAD_REACTORS
330
E
102
}
330
E
  0
ENDSEC
  0
SECTION
  2
THUMBNAILIMAGE
 90
    16364
310
28000000B40000005500000001000800000000000000000000000000000000000000000000000000FFFFFF000000FF0000FFFF0000FF0000FFFF0000FF000000FF00FF000000000080808000C0C0C0000000FF007F7FFF000000A5005252A50000007F003F3F7F0000004C0026264C000000260013132600003FFF007F9FFF
310
000029A5005267A500001F7F003F4F7F0000134C00262F4C000009260013172600007FFF007FBFFF000052A500527CA500003F7F003F5F7F0000264C0026394C0000132600131C260000BFFF007FDFFF00007CA5005291A500005F7F003F6F7F0000394C0026424C00001C26001321260000FFFF007FFFFF0000A5A50052A5
310
A500007F7F003F7F7F00004C4C00264C4C00002626001326260000FFBF007FFFDF0000A57C0052A59100007F5F003F7F6F00004C3900264C420000261C001326210000FF7F007FFFBF0000A5520052A57C00007F3F003F7F5F00004C2600264C39000026130013261C0000FF3F007FFF9F0000A5290052A56700007F1F003F
310
7F4F00004C1300264C2F00002609001326170000FF00007FFF7F0000A5000052A55200007F00003F7F3F00004C0000264C260000260000132613003FFF00009FFF7F0029A5000067A552001F7F00004F7F3F00134C00002F4C260009260000172613007FFF0000BFFF7F0052A500007CA552003F7F00005F7F3F00264C0000
310
394C2600132600001C261300BFFF0000DFFF7F007CA5000091A552005F7F00006F7F3F00394C0000424C26001C26000021261300FFFF0000FFFF7F00A5A50000A5A552007F7F00007F7F3F004C4C00004C4C26002626000026261300FFBF0000FFDF7F00A57C0000A59152007F5F00007F6F3F004C3900004C422600261C00
310
0026211300FF7F0000FFBF7F00A5520000A57C52007F3F00007F5F3F004C2600004C39260026130000261C1300FF3F0000FF9F7F00A5290000A56752007F1F00007F4F3F004C1300004C2F26002609000026171300FF000000FF7F7F00A5000000A55252007F0000007F3F3F004C0000004C2626002600000026131300FF00
310
3F00FF7F9F00A5002900A55267007F001F007F3F4F004C0013004C262F002600090026131700FF007F00FF7FBF00A5005200A5527C007F003F007F3F5F004C0026004C2639002600130026131C00FF00BF00FF7FDF00A5007C00A55291007F005F007F3F6F004C0039004C26420026001C0026132100FF00FF00FF7FFF00A5
310
00A500A552A5007F007F007F3F7F004C004C004C264C002600260026132600BF00FF00DF7FFF007C00A5009152A5005F007F006F3F7F0039004C0042264C001C002600211326007F00FF00BF7FFF005200A5007C52A5003F007F005F3F7F0026004C0039264C00130026001C1326003F00FF009F7FFF002900A5006752A500
310
1F007F004F3F7F0013004C002F264C000900260017132600000000002D2D2D005B5B5B0089898900B7B7B700B3B3B30000000000000000000000000000000000000000000000000000000000000000000007070707070707070707070707070707070707070707070707070707070707070707070707070707070707070707
310
07070707070707070707070707070707070707070707070707070707070707070707070707070707070707070707070707070707070707070707070707070707070707070700000000000000000000000000000000000000000000000000000000000000000000000000000000000000000000000000000000000000000000
310
00000000000000070000000000000000000000000500000005000000000000000000000000000000000000000000000000000000000000000000000000000000000000000000000000000000000000000000000000000000000000000000000000000000000000000000000000000000000000000000000000070000000000
310
00000000000000000000000000000000000000000000000000000000000000000000000000000000000000000000000000000000000000000000000007000000000505050505050505050505050505050505000000000000000000000000000000000000000000000000000000000000000000000000000000000000000000
310
00000000000000000000000000000000000000000000000000000000000000000000000000000000000000000000000700000000000000000000000000000000000000000000000000000000000000000000000000000000000000000000000000000000000000000000000000000000000700000000050505050505050505
310
05050505050505050505050505050505050505050505050505050505050505050505050505050505050505050505050505050505050500000000000000000000000000000000000000000000000000000000000000000000000000000000000000000000070000000000000000000000000000000000000000000000000000
310
00000000000000000000000000000000000000000000000000000000000000000000000000000007000000000505050505050505050505050505050505050505050505050505050505050505050505050505050505050505050505050505050505050505050505050505050000000000000000000000000000000000000000
310
00000000000000000000000000000000000000000000000000000700000000000000000000000000000000000000000000000000000000000000000000000000000000000000000000000000000000000000000000000000000000000700000000050505050505050505000000000000000000000000000000000000000000
310
00000000000000000000000000000000000000000000000000000000000000000000000000000000000000000000000000000000000000000000000000000000000000000000000000000000000000070000000000000000000000000000000000000000000000000000000000000000000000000000000000000000000000
310
00000000000000000000000000000000000007000000000505050505050505050000000000000000000000000000000000000000000000000000000000000000000000000000000000000000000000000000000000000000000000000000000000000000000000000000000000000000000000000000000000000000000000
310
00000000000700000000000000000000000000000000000000000000000000000000000000000000000000000000000000000000000000000000000000000000000000000000000700000000050505050505050505050505050505050505050505050505050505050505050505050505050505050505050505050505050505
310
05050505050505050000000000000000000000000000000000000000000000000000000000000000000000000000000000000000000000000000070000000000000000000000000000000000000000000000000000000000000000000000000000000000000000000000000000000000000000000000000000000000070000
310
00000505050505050505050005050505050505050505050505050505050505050505050505050505050505050505050505050505050505050505050505000000000000000000000000000000000000000000000000000000000000000000000000000000000000000000000000000007000000000000000000000000000000
310
00000000000000000000000000000000000000000000000000000000000000000000000000000000000000000000000000000700000000000000000000000000000000000000000000000000000000000000000000000000000000000000000000000000000000000000000000000000000000000000000000000000000000
310
00000000000000000000000000000000000000000000000000000000000000000000000000070000000000000000000000000000000000000000000000000000000000000000000000000000000000000000000000000000000000000000000000000000000000070000000707070707070707070707070707070707070707
310
07070707070707070707070707070707070707070707070707070707070707070707070707070707070707070707070707070707070707070707070707070707070707070707070707070707070707070707070707000000000007000000000000000000000000000000000000000000000000000000000000000000000000
310
00000000000000000000000000000000000000000000000000000000000700000007000000000000000000000007070707000000000000000000000007070707000000000000000000000707070707000000000000000000000007070707000000000000000000000707070707000000000000000000000007070700000000
310
00000000000000000007070000000000070000000000000000000000000000000000000000000000000000000000000000000000000000000000000000000000000000000000000000000000000000000000070000000700000000000000000000000707070700000000000000000000000707070700000000000000000000
310
00070707070000000000000000000007070707070000000000000000000007070707070000000000000000000000070707000000000000000000000000000707000000000007000000000000000000000000000000000000000000000000000000000000000000000000000000000000000000000000000000000000000000
310
00000000000000000700000000000000000000000000000000000000000000000000000000000000000000000000000000070707070707070000000000000000000000000000000000000000000505050505050505050505050505050505050500000707070707070707070707070707070707070700000000000700000000
310
00000000000000000000000000000000000000000000000000000000000000000000000000000000000000000000000000000000000000000000000000070000000000000000000000000000000000000000000000000000000000000000000707070707070707000000000007070707070707070700000000000000000000
310
00000005050505050505050505050505050505050505000007070700070707070707070707070700000007000000000007000000000000000000000000000000000000000000000000000000000000000000000000000000000000000000000000000000000000000000000000000000000007000000000000000000000000
310
00000000000000000000000000000000000007070707070707070707070707070707070707070707070707070707070700000000000000000505050505050505050505050505050505050500000707070007070707070707070000000000000700000000000700000000000000000000000000000000000000000000000000
310
00000000000000000000000000000000000000000000000000000000000000000000000000000000070000000000000000000000000000000000000000000000000000000007070707070707070707070707070707070707070707070707070707070707070707070700000000050505050505050505050505050505050505
310
05000007070700070707070707070707000000000007000000000007000000000000000000000000000000000000000000000000000000000000000000000000000000000000000000000000000000000000000000000000000000000007000000000000000000000000000000000000000000000000000707070000000000
310
00000000000000000000000000000700000000000000000000000000000007070707070000000000000000000000000000000000000000000707070707070707070707070707000000000700000000000700000000000000000000000000000000000000000000000000000000000000000000000000000000000000000000
310
00000000000000000000000000000000000000070000000000000000000000000000000000000000000000070707000000000000000000000000000000000000000000070000000000000000000000000000000000000007070707000000000000000000000000000000000000070707070707070707070707070700000000
310
07000000000007000000000000000000000000000000000000000000000000000000000000000000000000000000000000000000000000000000000000000000000000000000000007000000000000000000000000000000000000000000000707070000000000000000000000000000000000000000000007000000000000
310
00000000000000000000000000000000070707070000000000000000000000000000000707070700000000000000000000000000000700000000000700000000000000000000000000000000000000000000000000000000000000000000000000000000000000000000000000000000000000000000000000000000000700
310
00000000000000000000000000000000000000070707070700000000000000000000000000000000000000000000070000000000000000000000000000000000000000000000070707070707000000000000000000000000070707070000000000000000000000000700070000000000070000000000000000000000000000
310
00000000000000000000000000000000000000000000000000000000000000000000000000000000000000000000000000000007000000000000000000000000000000000000070707070007070000000000000000000000000000000000000000000000000000000000000000000000000000000000070707070700000000
310
07070707070000000000000000000707070707070707070707070707070707070700000000000700000000000000000000000000000000000000000000000000000000000000000000000000000000000000000000000000000000000000000000000000000000000700000000000000000000000000000000000707000007
310
00070700000000000000000000000000000000000000000000000000000000000000000000000000000000000000000000000000000700000007070700000000000000070707070707070707070707070707070707070000000000070000000000000000000000000000000000000000000000000000000000000000000000
310
00000000000000000000000000000000000000000000000000000000000007000000000000000000000000000000000707000000070007070000000000000000000000000000000000000000000000000000000000000000000000000000000000000000000000000000070000000000070707070000000007070707070707
310
07000707070707070707070700000000000700000000000000000000000000000000000000000000000000000000000000000000000000000000000000000000000000000000000000000000000000000000000700000000000000000000000000000707070000000007000707000000000000000000000000000000000000
310
00000000000000000000000000000000000000000000000000000000000000000700000000000000000707070700070707070707070707070707070707070707070000000000070000000000000000000000000000000000000000000000000000000000000000000000000000000000000000000000000000000000000000
310
00000000000000000007000000000000000000000000000707000000000000070007070000000000000000000000000000000000000000000000000000000000000000000000000000000000000000000000000000000000000000000000000000070707070000000000000000000000000000000000000000000007000000
310
00000000000000000000000000000000000000000000000000000000000000000000000000000000000000000000000000000000000000000000000000000700000000000000000000000007070000000000000007000707000000000000000000000000000000000000000000000000000000000000000000000000000000
310
00000000000000000000000000000000000000000000000000000707070707070000000000000000000000000000000000070000000000000000000000000000000000000000000000000000000000000000000000000000000000000000000000000000000000000000000000000000000000070000000000000000000007
310
07070000000000000000070007070000000000000000000000000000000000000000000000000000000000000000000000000000070707070707070707070707070707070707070707070707070000000000000007070707070707070000000000000000000007000000000000000000000000000000000000000000000000
310
00000000000000000000000000000000000000000000000000000000000000000000000000000000000700000000000000000007070000000000000000000007000707000000000000000000000000000000000000000000000000000000000000000000000000000007000000000000000000000000000000000000000000
310
00000700000000000000000000000000000707070707070000000000070000000000000000000000000000000000000000000000000000000000000000000000000000000000000000000000000000000000000000000000000000000000070000000000000000070700000000000000000000000700070700000000000000
310
00000000000000000000000000000000000000000000000000000000000000070707070707070707070707070707070707070707070707070000000000000000000000000000000700000707000000000007000000000000000000000000000000000000000000000000000000000000000000000000000000000000000000
310
00000000000000000000000000000000000000000700000000000000070705050505050505050505050507050707050505050505050505050505050505050505050505050505050505050505050505050505050507070707070707070707070707070707070707070707070707050505050505050505050505050505070505
310
07070000000000070000000000000000000000000000000000000000000000000000000000000000000000000000000000000000000000000000000000000000000000000000000000070000000000000707000000000000000000000000000700070700000000000000000000000000000000000000000000000000000000
310
00000000000000000000000000000000000000000000000000000000000000000000000000000000000000000000000500000700000707000000000007000000000000000000000000000000000000000000000000000000000000000000000000000000000000000000000000000000000000000000000000000000000007
310
00000000000707070000000000000000000000000007000707000000000000000000000000000000000000000000000000000000000000000000000000000000000000000000000000000000000000000000000000000000000000000000000000000005050505070000070700000000000700000000000000000000000000
310
00000000000000000000000000000000000000000000000000000000000000000000000000000000000000000000000000000000070000000007070007000000000000000000000000000700070700000000000000000000000000000000000000000000000000000000000000000000000000000000000000000000000000
310
00000000000000000000000000000000000000000000000000050505050700000707000000000007000000000000000000000000000000000000000000000000000000000000000000000000000000000000000000000000000000000000000000000000000000000007000000000707000700000000000000000000000000
310
07000707000000000000000000000000000000000000000000000000000000000000000000000000000000000000000000000000000000000000000000000000000000000505050505050505050505050505070000070700000000000700000000000000000000000000000000000000000000000000000000000000000000
310
00000000000000000000000000000000000000000000000000000000000000070000000007070007000000000000000000000000000700070700000000000000000000000000000000000000000000000000000000000000000000000000000000000000000000000000000000000000000000000000000000000007070707
310
07070707070707070707070707000000000007000000000000000000000000000000000000000000000000000000000000000000000000000000000000000000000000000000000000000000000000000000000007000000000707000700000000000000000000000000070007070000000000000000000000000000000000
310
00000000000000000000000000000007070707070707070707070707070707070707070707070707070707070707070707000000000000000000000000000000000700000000000700000000000000000000000000000000000000000000000000000000000000000000000000000000000000000000000000000000000000
310
00000000000000000000070000000007070007000000000000000000000000000700070707070707070707070707070707070707070707070707070707070707070707070000000000000000000000000000000000000000000000000007070707070707070707070707070707070707070707070707070000000000070000
310
00000000000000000000000000000000000000000000000000000000000000000000000000000000000000000000000000000000000000000000000000000007000000000707070707070707070707070707070707070707070000000000000707070707070707070707070707070707070707070707070707070707070707
310
07070707070707070707070707070707070707070707070707070707070707070707070707070707070707070700000000000700000000000000000000000000000000000000000000000000000000000000000000000000000000000000000000000000000000000000000000000000000000000700000000070707070707
310
07070707070707070707070707070707070707070707070707070707070707070707070707070707070707070707070707070707070707070707070707070707070707070707070700000000000000000000000000000000000000000000000000000000000000070000000000000000000000000000000000000000000000
310
00000000000000000000000000000000000000000000000000000000000000000000000000000000000007000000000707070707070707070707070707070707070707070707070707070000000000000000000000000000000000000000000000000000000000000000000000000000000000000000000000000000000000
310
00000000000000000000000000000000000000000000000000000000000700000000000000000000000000000000000000000000000000000000000000000000000000000000000000000000000000000000000000000000000000000000000700000007070707070707070707070707070707070707070707070707070707
310
07070707070707070707070707070707070707070707070707070707070707070707070707070707070707070707070707070707070707070707070707070707070707070707070707070707070000000000070000000007000000000000000000000000000000000000000000000000000000000000000000000000000000
310
00000000000000000000000000000000000000000007000000070000000000000000000000070707070000000000000000000007070707070000000000000000000000070707070000000000000000000007070707070000000000000000000007070707070000000000000000000000070707000000000000000000000000
310
00070700000000000700000000000000000000000000000000000000000000000000000000000000000000000000000000000000000000000000000000000000000000000000000000000700000007000000000000000000000007070707000000000000000000000007070707000000000000000000000707070707000000
310
00000000000000070707070700000000000000000000070707070700000000000000000000000707070000000000000000000000000007070000000000070000000000000000000000000000000000000000000000000000000000000000000000000000000000000000000000000000000000000000000000000000000000
310
07000000000007070707070707070707070707070707070700000000000000000000000000000000000000000000000000000000000000000000000000000000000000000000000000000000000000000000000000000000000000000000000000000000000000000000000000000000000007000000000000000000000000
310
00000000000000000000000000000000000000000000000000000000000000000000000000000000000000000000000000000000000700000000000707070707070707070707070707070707070707070707070707070707070707070707070707070707070707070707070707070700000000000000000000000000000000
310
00000000000000000000000000000000000000000000000000000000000000000000000000000000070000000000000000000000000000000000000000000000000000000000000000000000000000000000000000000000000000000000000000000000000000000000070000000000070000000000000000000000000000
310
00000007070707070707070707070707070707070707070707070707070707070707070707070707070707070707070707070707070707070707070707070707070707070707070000000000000000000000000000000000000000000007000000000000000000000000000000000000000000000000000000000000000000
310
00000000000000000000000000000000000000000000000000000000000000000700000000000707070707070707070707070707070707070707070707070707000000000000000000000000000000000000000000000000000007070707070707070707070707070707070707070707070707070707070707070707070707
310
07070707070707070707070707070700000000070000000000000000000000000000000000000000000000000000000000000000000000000000000000000000000000000000000000000000000000000000000000070000000000070007000000000000000000000000000700070700000000000007070707070707070707
310
07070707070707070707070707070707070707070707070707070707070707070707070707070707070700000000000000000707070707070707070707070707070707070000000007000000000000000000000000000000000000000000000000000000000000000000000000000000000000000000000000000000000000
310
00000000000000000000000700000000000700070000000000000000000000000007000707000000000000000000000000000000000000000000000000000000000000000000000000000000000000000000000000000000000000000000000707070707070707070707070707070707070707070707070707000000000700
310
00000000000000000000000000000000000000000000000000000000000000000000000000000000000000000000000000000000000000000000000000000000070000000000070007000000000000000000000000000700070700000000000000000000000000000000000000000000000000000000000000000000000000
310
00000000000000000000000000000000000000000000000000000000000000000000000000000505000007000700070000000007000000000000000000000000000000000000000000000000000000000000000000000000000000000000000000000000000000000000000000000000000000000007000000000007000700
310
00000000000000000000000007000707000000000000000000000000000000000000000000000000000000000000000000000000000000000000000000000000000000000000000000000000000000000505050505050505050505050505000700070007000000000700000000000000000000000000000000000000000000
310
00000000000000000000000000000000000000000000000000000000000000000000000000000000000000070000000000070007000000000000000000000000000700070700000000000000000000000000000000000000000000000000000000000000000000000000000000000000000000000000000000000000000000
310
00000000000000000000000000000000050505050007000700070000000007000000000000000000000000000000000000000000000000000000000000000000000000000000000000000000000000000000000000000000000000000000000007000000000000070700000000000000000000000000070007070000000000
310
00000000000000000000000000000000000000000000000000000000000000000000000000000000000000000000000000000000000000000000000000000000000000000005050005000700070007000000000700000000000000000000000000000000000000000000000000000000000000000000000000000000000000
310
00000000000000000000000000000000000000000000070000000000000707000000000000000000000000000700070700000000000000000000000000000000000000000000000000000000000000000000000000000000000000000000000000000000000000000000000000000000000000000000000000000005050000
310
07000700070000000007000000000000000000000000000000000000000000000000000000000000000000000000000000000000000000000000000000000000000000000000000000000007000000000000000707050505050505050505050505070507070505050505050505050505050505050505050505050505050505
310
05050505050505050505050507070707070707070707070707070707070707070707070707050505050505050505050505050505050705070507000000000700000000000000000000000000000000000000000000000000000000000000000000000000000000000000000000000000000000000000000000000000000000
310
00070000000000000000070707000000000000000000000700070700000000000000000000000000000000000000000000000000000000000000000000000000000707070707070707070707070707070707070707070707070700000000000000000000000000000000070007000700000000070000000000000000000000
310
00000000000000000000000000000000000000000000000000000000000000000000000000000000000000000000000000000000000007000000000000000000000707000000000000000000070007070000000000000000000000000000000000000000000000000000000000000000000000000000070707070707070707
310
07070707070707070707070707070707000000000000000000000007070707070707070707000000000700000000000000000000000000000000000000000000000000000000000000000000000000000000000000000000000000000000000000000000000000000000000700000000000000000000000707000000000000
310
00000700070700000000000000000000000000000000000000000000000000000000000000000000000000000000000000000000000000000000000000000000000000000000000000000707070707070700000000000000000000000000070000000000000000000000000000000000000000000000000000000000000000
310
00000000000000000000000000000000000000000000000000000000000000000007000000000000000000000000070707000000000000070007070000000000000000000000000000000000000000000000000000000000000000000000000000000000000000000000000000000000000000000000000000000007070707
310
07000000000000000000000000000000000000000700000000000000000000000000000000000000000000000000000000000000000000000000000000000000000000000000000000000000000000000000000000000700000000000000000000000000000707000000000007000707000000000000000000000000000000
310
00000000000000000000000000000000000000000000000000000000000000000000000000000000000000000000070707070000000000000000000000000000000000000000000000070000000000000000000000000000000000000000000000000000000000000000000000000000000000000000000000000000000000
310
00000000000000000000000007000000000000000000000000000000070700000000070007070000000000000000000000000000000000000000000000000000000000000000000000000000000000000000000000000000070000000000000007070707000000000000000000000000000000000000000000000000000007
310
00000000000000000000000000000000000000000000000000000000000000000000000000000000000000000000000000000000000000000000000000000000000700000000000000000000000000000000070707000007000707000000000000000000000000000000000000000000000000000000000000000000000000
310
00000000000000000000000000000700000000070707070000000000000000000000000000000000000000000000000000000000070000000000000000000000000000000000000000000000000000000000000000000000000000000000000000000000000000000000000000000000000000000000070000000000000000
310
00000000000000000000070700070007070000000000000000000000000000000000000000000000000000000000000000000000000000000000000000000000000000070000070707000000000000000000000000000000000000000000000000000000000000000007000000000000000000000000000000000000000000
310
00000000000000000000000000000000000000000000000000000000000000000000000000000000000000000700000000000000000000000000000000000000070707000707000000000000000000000000000000000000000000000700000000000000000000000000000000000007070707070707070707070707000000
310
00000000000000000000000000000000000000000000000000000000000000070000000000000000000000000000000000000000000000000000000000000000000000000000000000000000000000000000000000000000000000000000000000070000000000000000000000000000000000000000000707070700000000
310
00000000000000000000000000000000000007000000000000000000000000000000000000000000000000070707070000000000000000000000000000000000000000000000000000000000000000000000000007000000000000000000000000000000000000000000000000000000000000000000000000000000000000
310
00000000000000000000000000000000000000000000000700000000000000000000000000000000000000000000070707000000000000000000000000000000000000000000000700000000000000000000000000000000000000000007070707000000000000000000000000000000000000000000000000000000000000
310
00000000000000000000070000000000000000000000000000000000000000000000000000000000000000000000000000000000000000000000000000000000000000000000000000000000070000000000000000000000000000000000000000000000000707070000000000000000000000000000000000000000070000
310
00000000000000000000000000000000070707070000000000000000000000000000000000000000000000000000000000000000000000000000000000000007000000000000000000000000000000000000000000000000000000000000000000000000000000000000000000000000000000000000000000000000000000
310
00000700000000000000000000000000000000000000000000000000000707070707070707070707070707070707070707070707070707070707070707070707070707070707000000000000000000000000000000000000000000000000000000000000000000000000000000000000000000000700000000000000000000
310
00000000000000000000000000000000000000000000000000000000000000000000000000000000000000000000000000000000000000070000000000000000000000000000000000000000000000000000000000070707070707070707070707070707070707070707070707070707070707070707070000000000000000
310
00000000000000000000000000000000000000000000000000000000000000000000000000000000000007000000000000000000000000000000000000000000000000000000000000000000000000000000000000000000000000000000000000000000000000000000000007000000000000000000000000000000000000
310
00000000000000000000000000070707070700000000000000000000000700000000070707070707070000000000000000000000000000000000000000000000000000000000000000000000000000000000000000000000000000000000000700000000000000000000000000000000000000000000000000000000000000
310
00000000000000000000000000000000000000000000000000000000000000000000070000000000000000000000000000000000000000000000000000000000000000000000070707070707070707070707070707070707000000000000000000000000000000000000000000000000000000000000000000000000000000
310
00000000000000000000000000000000000000000007000000000000000000000000000000000000000000000000000000000000000000000000000000000000000000000000000000000000000000000000000000000007000000000000000000000000000000000000000000000000000000000000000000000000000000
310
00000000000000000000000000000000000000000000000000000000000000000000000000000000000000000000000000000000000000000000000000000000000000000000000000000700000000000000000000000000000000000000000000000000000000000000000000000000000000000000000000000000000000
310
00000000000000000000000000070000000707070707070707070707070707070707070707070707070707070707070707070707070707070707070707070707070707070707070707070707070707070707070707070707070707070707070707070707070707070707070707070707070707070707070707070000000000
310
07000000000000000000000000000000000000000000000000000000000000000000000000000000000000000000000000000000000000000000000000000000000007000000070000000000000000000000070707070000000000000000000007070707070000000000000000000007070707070000000000000000000007
310
07070707000000000000000000000707070707000000000000000000000007070700000000000000000000000000070700000000000700000000000000000000000000000000000000000000000000000000000000000000000000000000000000000000000000000000000000000000000000000000000700000007000000
310
00000000000000000707070700000000000000000000000707070700000000000000000000070707070700000000000000000000070707070700000000000000000000070707070700000000000000000000000707070000000000000000000000000007070000000000070000000000000000000000000000000000000000
310
00000000000000000000000000000000000000000000000000000000000000000000000000000000000000000007000000000000000000000000000000000000000000000000000000000000000000000000000000000000000000000000000000000000000000000000000000000000000000000000000000000000000000
310
00000000000000000000000000000000000000000000000000000000000000000700000000000000000000000000000000000000000000000000000000000000000000000000000000000000000000000000000000000000000000000000000000000700000000000000000000000000000000000000000000000000000000
310
00000000000000000000000000000000000000000000000000000000000000000000000000000000000000000000000000000000000000000000000000000000000000000000000000000000000000000000000000070000000000000000000000000000000000000000000000000000000000000000000000000000000000
310
00000000000000000000000000000000000000000000000007000000000000000000000000000000000000000000000000000000000000000000000000000000000000000000000000000000000000000000000000000000000000000000000000000000000000000000000000000000000000000000000000000000000000
310
00000000000000000000000700000000000000000000000000000000000000000000000000000000000000000000000000000000000000000000000000000000000000000000000000000000000700000000000000000000000000000000000000000000000000000000000000000000000000000000000000000000000000
310
00000000000000000000000000000000000000000000000000000000000000000000000000000000000000000000000000000000000000000000000000000000070000000000000000000000000000000000000000000000000000000000000000000000000000000000000000000000000000000000000000000000000000
310
00000007000000000000000000000000000000000000000000000000000000000000000000000000000000000000000000000000000000000000000000000000000000000000000000000000000000000000000000000000000000000000000000000000000000000000000000000000000000000007000000000000000000
310
00000000000000000000000000000000000000000000000000000000000000000000000000000000000000000000000000000000000000000700000000000000000000000000000000000000000000000000000000000000000000000000000000000000000000000000000000000000000000000000000000000000000000
310
00000000000000000000000000000000000000000000000000000000000000000000000000000000000000070000000000000000000000000000000000000000000000000000000000000000000000000000000000000000000000000000000000000000000000000000000000070000000000000000000000000000000000
310
00000000000000000000000000000000000000000000000000000000000000000000000000000000000000000000000000000000000000000000000000000000000000000000000000000000000000000000000000000000000000000000000007000000000000000000000000000000000000000000000000000000000000
310
00000000000000000000000000000000000000000000000000000000000000000000000707070707070707070707070707070707070707070707070707070707070707070707070707070707070707070707070707070707070707070707070707070707070707070707070707070707070707070707070707070707070707
310
07070707070707070707070707070707070707070707070000000000000000000000000000000000000000000000000000000000000000000000000000000000000000000000000000000000000000000000000000000000000000000000000000000000000000000000000000000000000000000000000000000000000000
310
000000000000000000000000000000000000000000000000000000000000000000000000000000000000000000000000000000000000000000000000000000000000000000000000000000000000000000000000000000000000000000000000000000000000000000000000
  0
ENDSEC
  0
EOF
