  0
SECTION
  2
HEADER
  9
$ACADVER
  1
AC1018
  9
$ACADMAINTVER
 70
     0
  9
$DWGCODEPAGE
  3
ANSI_1251
  9
$INSBASE
 10
0.0
 20
0.0
 30
0.0
  9
$EXTMIN
 10
885.291713504535
 20
-418.0463740669235
 30
0.0
  9
$EXTMAX
 10
1182.291713504535
 20
-208.0463740669235
 30
0.0
  9
$LIMMIN
 10
885.291713504535
 20
-418.0463740669235
  9
$LIMMAX
 10
1182.291713504535
 20
-208.0463740669235
  9
$ORTHOMODE
 70
     0
  9
$REGENMODE
 70
     1
  9
$FILLMODE
 70
     1
  9
$QTEXTMODE
 70
     0
  9
$MIRRTEXT
 70
     0
  9
$LTSCALE
 40
1.0
  9
$ATTMODE
 70
     1
  9
$TEXTSIZE
 40
12.69999980926514
  9
$TRACEWID
 40
1.0
  9
$TEXTSTYLE
  7
STANDARD
  9
$CLAYER
  8
0
  9
$CELTYPE
  6
ByLayer
  9
$CECOLOR
 62
     7
  9
$CELTSCALE
 40
1.0
  9
$DISPSILH
 70
     0
  9
$DIMSCALE
 40
1.0
  9
$DIMASZ
 40
5.0
  9
$DIMEXO
 40
0.0625
  9
$DIMDLI
 40
0.375
  9
$DIMRND
 40
0.01
  9
$DIMDLE
 40
0.0
  9
$DIMEXE
 40
0.125
  9
$DIMTP
 40
0.0
  9
$DIMTM
 40
0.0
  9
$DIMTXT
 40
3.0
  9
$DIMCEN
 40
0.09
  9
$DIMTSZ
 40
0.0
  9
$DIMTOL
 70
     0
  9
$DIMLIM
 70
     0
  9
$DIMTIH
 70
     1
  9
$DIMTOH
 70
     1
  9
$DIMSE1
 70
     0
  9
$DIMSE2
 70
     0
  9
$DIMTAD
 70
     1
  9
$DIMZIN
 70
     3
  9
$DIMBLK
  1

  9
$DIMASO
 70
     1
  9
$DIMSHO
 70
     1
  9
$DIMPOST
  1
mm
  9
$DIMAPOST
  1

  9
$DIMALT
 70
     0
  9
$DIMALTD
 70
     2
  9
$DIMALTF
 40
1.0
  9
$DIMLFAC
 40
1.0
  9
$DIMTOFL
 70
     1
  9
$DIMTVP
 40
0.0
  9
$DIMTIX
 70
     0
  9
$DIMSOXD
 70
     0
  9
$DIMSAH
 70
     0
  9
$DIMBLK1
  1

  9
$DIMBLK2
  1

  9
$DIMSTYLE
  2
Standard
  9
$DIMCLRD
 70
     7
  9
$DIMCLRE
 70
     7
  9
$DIMCLRT
 70
     7
  9
$DIMTFAC
 40
1.0
  9
$DIMGAP
 40
0.0625
  9
$DIMJUST
 70
     0
  9
$DIMSD1
 70
     0
  9
$DIMSD2
 70
     0
  9
$DIMTOLJ
 70
     1
  9
$DIMTZIN
 70
     0
  9
$DIMALTZ
 70
     3
  9
$DIMALTTZ
 70
     0
  9
$DIMUPT
 70
     0
  9
$DIMDEC
 70
     2
  9
$DIMTDEC
 70
     4
  9
$DIMALTU
 70
     2
  9
$DIMALTTD
 70
     2
  9
$DIMTXSTY
  7
_TCW_TXTSTY_1
  9
$DIMAUNIT
 70
     0
  9
$DIMADEC
 70
     2
  9
$DIMALTRND
 40
0.01
  9
$DIMAZIN
 70
     0
  9
$DIMDSEP
 70
    46
  9
$DIMATFIT
 70
     3
  9
$DIMFRAC
 70
     0
  9
$DIMLDRBLK
  1

  9
$DIMLUNIT
 70
     2
  9
$DIMLWD
 70
    -2
  9
$DIMLWE
 70
    -2
  9
$DIMTMOVE
 70
     0
  9
$LUNITS
 70
     2
  9
$LUPREC
 70
     2
  9
$SKETCHINC
 40
1.0
  9
$FILLETRAD
 40
1.0
  9
$AUNITS
 70
     0
  9
$AUPREC
 70
     2
  9
$MENU
  1
.
  9
$ELEVATION
 40
0.0
  9
$PELEVATION
 40
0.0
  9
$THICKNESS
 40
0.0
  9
$LIMCHECK
 70
     0
  9
$CHAMFERA
 40
0.5
  9
$CHAMFERB
 40
0.5
  9
$CHAMFERC
 40
1.0
  9
$CHAMFERD
 40
0.0
  9
$SKPOLY
 70
     0
  9
$TDCREATE
 40
2454518.392926065
  9
$TDUCREATE
 40
2454518.351259398
  9
$TDUPDATE
 40
2454518.392926076
  9
$TDUUPDATE
 40
2454518.35125941
  9
$TDINDWG
 40
0.0
  9
$TDUSRTIMER
 40
0.0
  9
$USRTIMER
 70
     1
  9
$ANGBASE
 50
0.0
  9
$ANGDIR
 70
     0
  9
$PDMODE
 70
     0
  9
$PDSIZE
 40
0.0
  9
$PLINEWID
 40
0.0
  9
$SPLFRAME
 70
     0
  9
$SPLINETYPE
 70
     6
  9
$SPLINESEGS
 70
    20
  9
$HANDSEED
  5
F0
  9
$SURFTAB1
 70
     6
  9
$SURFTAB2
 70
     6
  9
$SURFTYPE
 70
     6
  9
$SURFU
 70
     6
  9
$SURFV
 70
     6
  9
$UCSBASE
  2

  9
$UCSNAME
  2

  9
$UCSORG
 10
0.0
 20
0.0
 30
0.0
  9
$UCSXDIR
 10
1.0
 20
0.0
 30
0.0
  9
$UCSYDIR
 10
0.0
 20
1.0
 30
0.0
  9
$UCSORTHOREF
  2

  9
$UCSORTHOVIEW
 70
     0
  9
$UCSORGTOP
 10
0.0
 20
0.0
 30
0.0
  9
$UCSORGBOTTOM
 10
0.0
 20
0.0
 30
0.0
  9
$UCSORGLEFT
 10
0.0
 20
0.0
 30
0.0
  9
$UCSORGRIGHT
 10
0.0
 20
0.0
 30
0.0
  9
$UCSORGFRONT
 10
0.0
 20
0.0
 30
0.0
  9
$UCSORGBACK
 10
0.0
 20
0.0
 30
0.0
  9
$PUCSBASE
  2

  9
$PUCSNAME
  2

  9
$PUCSORG
 10
0.0
 20
0.0
 30
0.0
  9
$PUCSXDIR
 10
1.0
 20
0.0
 30
0.0
  9
$PUCSYDIR
 10
0.0
 20
1.0
 30
0.0
  9
$PUCSORTHOREF
  2

  9
$PUCSORTHOVIEW
 70
     0
  9
$PUCSORGTOP
 10
0.0
 20
0.0
 30
0.0
  9
$PUCSORGBOTTOM
 10
0.0
 20
0.0
 30
0.0
  9
$PUCSORGLEFT
 10
0.0
 20
0.0
 30
0.0
  9
$PUCSORGRIGHT
 10
0.0
 20
0.0
 30
0.0
  9
$PUCSORGFRONT
 10
0.0
 20
0.0
 30
0.0
  9
$PUCSORGBACK
 10
0.0
 20
0.0
 30
0.0
  9
$USERI1
 70
     0
  9
$USERI2
 70
     0
  9
$USERI3
 70
     0
  9
$USERI4
 70
     0
  9
$USERI5
 70
     0
  9
$USERR1
 40
0.0
  9
$USERR2
 40
0.0
  9
$USERR3
 40
0.0
  9
$USERR4
 40
0.0
  9
$USERR5
 40
0.0
  9
$WORLDVIEW
 70
     1
  9
$SHADEDGE
 70
     3
  9
$SHADEDIF
 70
    70
  9
$TILEMODE
 70
     1
  9
$MAXACTVP
 70
    64
  9
$PINSBASE
 10
0.0
 20
0.0
 30
0.0
  9
$PLIMCHECK
 70
     0
  9
$PEXTMIN
 10
0.0
 20
0.0
 30
0.0
  9
$PEXTMAX
 10
297.0
 20
210.0
 30
0.0
  9
$PLIMMIN
 10
0.0
 20
0.0
  9
$PLIMMAX
 10
297.0
 20
210.0
  9
$UNITMODE
 70
     0
  9
$VISRETAIN
 70
     1
  9
$PLINEGEN
 70
     0
  9
$PSLTSCALE
 70
     1
  9
$TREEDEPTH
 70
  3020
  9
$CMLSTYLE
  2
Standard
  9
$CMLJUST
 70
     0
  9
$CMLSCALE
 40
1.0
  9
$PROXYGRAPHICS
 70
     1
  9
$MEASUREMENT
 70
     0
  9
$CELWEIGHT
370
    -1
  9
$ENDCAPS
280
     0
  9
$JOINSTYLE
280
     0
  9
$LWDISPLAY
290
     0
  9
$INSUNITS
 70
     1
  9
$HYPERLINKBASE
  1

  9
$STYLESHEET
  1

  9
$XEDIT
290
     1
  9
$CEPSNTYPE
380
     0
  9
$PSTYLEMODE
290
     1
  9
$FINGERPRINTGUID
  2
{A533F050-FC02-4B67-ADE5-43B320726869}
  9
$VERSIONGUID
  2
{FAEB1C32-E019-11D5-929B-00C0DF256EC4}
  9
$EXTNAMES
290
     1
  9
$PSVPSCALE
 40
0.0
  9
$OLESTARTUP
290
     0
  9
$SORTENTS
280
   127
  9
$INDEXCTL
280
     0
  9
$HIDETEXT
280
     1
  9
$XCLIPFRAME
290
     0
  9
$HALOGAP
280
     0
  9
$OBSCOLOR
 70
   257
  9
$OBSLTYPE
280
     0
  9
$INTERSECTIONDISPLAY
280
     0
  9
$INTERSECTIONCOLOR
 70
   257
  9
$DIMASSOC
280
     2
  9
$PROJECTNAME
  1

  0
ENDSEC
  0
SECTION
  2
CLASSES
  0
CLASS
  1
ACDBDICTIONARYWDFLT
  2
AcDbDictionaryWithDefault
  3
ObjectDBX Classes
 90
        0
 91
        3
280
     0
281
     0
  0
ENDSEC
  0
SECTION
  2
TABLES
  0
TABLE
  2
VPORT
  5
8
330
0
100
AcDbSymbolTable
 70
     1
  0
VPORT
  5
29
330
8
100
AcDbSymbolTableRecord
100
AcDbViewportTableRecord
  2
*Active
 70
     0
 10
0.0
 20
0.0
 11
1.0
 21
1.0
 12
0.0
 22
0.0
 13
0.0
 23
0.0
 14
5.0
 24
5.0
 15
5.0
 25
5.0
 16
0.0
 26
0.0
 36
1.0
 17
1033.791713504535
 27
-313.0463740669235
 37
0.0
 40
196.86
 41
1.522959183673469
 42
50.0
 43
0.0
 44
0.0
 50
0.0
 51
0.0
 71
     0
 72
   100
 73
     1
 74
     3
 75
     0
 76
     1
 77
     0
 78
     0
281
     0
 65
     1
110
0.0
120
0.0
130
0.0
111
1.0
121
0.0
131
0.0
112
0.0
122
1.0
132
0.0
 79
     0
146
0.0
  0
ENDTAB
  0
TABLE
  2
LTYPE
  5
5
330
0
100
AcDbSymbolTable
 70
    13
  0
LTYPE
  5
14
330
5
100
AcDbSymbolTableRecord
100
AcDbLinetypeTableRecord
  2
ByBlock
 70
     0
  3

 72
    65
 73
     0
 40
0.0
  0
LTYPE
  5
15
330
5
100
AcDbSymbolTableRecord
100
AcDbLinetypeTableRecord
  2
ByLayer
 70
     0
  3

 72
    65
 73
     0
 40
0.0
  0
LTYPE
  5
16
330
5
100
AcDbSymbolTableRecord
100
AcDbLinetypeTableRecord
  2
Continuous
 70
     0
  3
Solid line
 72
    65
 73
     0
 40
0.0
  0
LTYPE
  5
2B
330
5
100
AcDbSymbolTableRecord
100
AcDbLinetypeTableRecord
  2
BORDER
 70
     0
  3
BORDER
 72
    65
 73
     6
 40
1.75
 49
0.5
 74
     0
 49
-0.25
 74
     0
 49
0.5
 74
     0
 49
-0.25
 74
     0
 49
0.0
 74
     0
 49
-0.25
 74
     0
  0
LTYPE
  5
2C
330
5
100
AcDbSymbolTableRecord
100
AcDbLinetypeTableRecord
  2
CENTER
 70
     0
  3
CENTER
 72
    65
 73
     4
 40
2.0
 49
1.25
 74
     0
 49
-0.25
 74
     0
 49
0.25
 74
     0
 49
-0.25
 74
     0
  0
LTYPE
  5
2D
330
5
100
AcDbSymbolTableRecord
100
AcDbLinetypeTableRecord
  2
DASHDOT
 70
     0
  3
DASHDOT
 72
    65
 73
     4
 40
1.0
 49
0.5
 74
     0
 49
-0.25
 74
     0
 49
0.0
 74
     0
 49
-0.25
 74
     0
  0
LTYPE
  5
2E
330
5
100
AcDbSymbolTableRecord
100
AcDbLinetypeTableRecord
  2
DASHED
 70
     0
  3
DASHED
 72
    65
 73
     2
 40
0.75
 49
0.5
 74
     0
 49
-0.25
 74
     0
  0
LTYPE
  5
2F
330
5
100
AcDbSymbolTableRecord
100
AcDbLinetypeTableRecord
  2
DIVIDE
 70
     0
  3
DIVIDE
 72
    65
 73
     6
 40
1.25
 49
0.5
 74
     0
 49
-0.25
 74
     0
 49
0.0
 74
     0
 49
-0.25
 74
     0
 49
0.0
 74
     0
 49
-0.25
 74
     0
  0
LTYPE
  5
30
330
5
100
AcDbSymbolTableRecord
100
AcDbLinetypeTableRecord
  2
DOT
 70
     0
  3
DOT
 72
    65
 73
     2
 40
0.25
 49
0.0
 74
     0
 49
-0.25
 74
     0
  0
LTYPE
  5
31
330
5
100
AcDbSymbolTableRecord
100
AcDbLinetypeTableRecord
  2
HIDDEN
 70
     0
  3
HIDDEN
 72
    65
 73
     2
 40
0.375
 49
0.25
 74
     0
 49
-0.125
 74
     0
  0
LTYPE
  5
32
330
5
100
AcDbSymbolTableRecord
100
AcDbLinetypeTableRecord
  2
PHANTOM
 70
     0
  3
PHANTOM
 72
    65
 73
     6
 40
2.5
 49
1.25
 74
     0
 49
-0.25
 74
     0
 49
0.25
 74
     0
 49
-0.25
 74
     0
 49
0.25
 74
     0
 49
-0.25
 74
     0
  0
LTYPE
  5
33
330
5
100
AcDbSymbolTableRecord
100
AcDbLinetypeTableRecord
  2
$INVISIBLE
 70
     0
  3
$INVISIBLE
 72
    65
 73
     2
 40
200.0
 49
-100.0
 74
     0
 49
-100.0
 74
     0
  0
LTYPE
  5
34
330
5
100
AcDbSymbolTableRecord
100
AcDbLinetypeTableRecord
  2
$AUXILIARY
 70
     0
  3
$AUXILIARY
 72
    65
 73
     2
 40
0.1000000014901161
 49
0.0500000007450581
 74
     0
 49
-0.0500000007450581
 74
     0
  0
LTYPE
  5
35
330
5
100
AcDbSymbolTableRecord
100
AcDbLinetypeTableRecord
  2
$CONSTRUCTION
 70
     0
  3
$CONSTRUCTION
 72
    65
 73
     4
 40
0.3
 49
0.2
 74
     0
 49
-0.05
 74
     0
 49
0.0
 74
     0
 49
-0.05
 74
     0
  0
LTYPE
  5
36
330
5
100
AcDbSymbolTableRecord
100
AcDbLinetypeTableRecord
  2
$SNAPEXT
 70
     0
  3
$SNAPEXT
 72
    65
 73
     2
 40
0.04
 49
0.02
 74
     0
 49
-0.02
 74
     0
  0
ENDTAB
  0
TABLE
  2
LAYER
  5
2
330
0
100
AcDbSymbolTable
 70
     1
  0
LAYER
  5
10
330
2
100
AcDbSymbolTableRecord
100
AcDbLayerTableRecord
  2
0
 70
     0
 62
     7
  6
Continuous
370
     0
390
F
1001
TCAD
1000
TCW_LAYER_ORDER
1002
{
1071
        0
1002
}
  0
ENDTAB
  0
TABLE
  2
STYLE
  5
3
330
0
100
AcDbSymbolTable
 70
    11
  0
STYLE
  5
11
330
3
100
AcDbSymbolTableRecord
100
AcDbTextStyleTableRecord
  2
STANDARD
 70
     0
 40
0.0
 41
1.0
 50
0.0
 71
     0
 42
7.619999885559082
  3
txt
  4

1001
ACAD
1000
Times New Roman
1071
      290
  0
STYLE
  5
38
330
3
100
AcDbSymbolTableRecord
100
AcDbTextStyleTableRecord
  2
_TCW_TXTSTY_1
 70
     0
 40
0.0
 41
1.0
 50
0.0
 71
     0
 42
0.6000000238418579
  3
TIMES.TTF
  4

1001
ACAD
1000
Times New Roman
1071
      290
  0
STYLE
  5
43
330
3
100
AcDbSymbolTableRecord
100
AcDbTextStyleTableRecord
  2
_TCW_TXTSTY_2
 70
     0
 40
0.0
 41
1.0
 50
0.0
 71
     0
 42
5.776946067810059
  3
TIMES.TTF
  4

1001
ACAD
1000
Times New Roman
1071
      290
  0
STYLE
  5
56
330
3
100
AcDbSymbolTableRecord
100
AcDbTextStyleTableRecord
  2
_TCW_TXTSTY_3
 70
     0
 40
0.0
 41
1.0
 50
0.0
 71
     0
 42
5.776946067810059
  3
TIMES.TTF
  4

1001
ACAD
1000
Times New Roman
1071
      290
  0
STYLE
  5
6D
330
3
100
AcDbSymbolTableRecord
100
AcDbTextStyleTableRecord
  2
_TCW_TXTSTY_4
 70
     0
 40
0.0
 41
1.0
 50
0.0
 71
     0
 42
5.776946067810059
  3
TIMES.TTF
  4

1001
ACAD
1000
Times New Roman
1071
      290
  0
STYLE
  5
7F
330
3
100
AcDbSymbolTableRecord
100
AcDbTextStyleTableRecord
  2
_TCW_TXTSTY_5
 70
     0
 40
0.0
 41
1.0
 50
0.0
 71
     0
 42
3.522528171539307
  3
TIMES.TTF
  4

1001
ACAD
1000
Times New Roman
1071
      290
  0
STYLE
  5
96
330
3
100
AcDbSymbolTableRecord
100
AcDbTextStyleTableRecord
  2
_TCW_TXTSTY_6
 70
     0
 40
0.0
 41
1.0
 50
0.0
 71
     0
 42
5.012131690979004
  3
TIMES.TTF
  4

1001
ACAD
1000
Times New Roman
1071
      290
  0
STYLE
  5
99
330
3
100
AcDbSymbolTableRecord
100
AcDbTextStyleTableRecord
  2
_TCW_TXTSTY_7
 70
     0
 40
0.0
 41
1.0
 50
0.0
 71
     0
 42
5.012131690979004
  3
TIMES.TTF
  4

1001
ACAD
1000
Times New Roman
1071
      290
  0
STYLE
  5
B4
330
3
100
AcDbSymbolTableRecord
100
AcDbTextStyleTableRecord
  2
_TCW_TXTSTY_8
 70
     0
 40
0.0
 41
1.0
 50
0.0
 71
     0
 42
5.012131690979004
  3
TIMES.TTF
  4

1001
ACAD
1000
Times New Roman
1071
      290
  0
STYLE
  5
C8
330
3
100
AcDbSymbolTableRecord
100
AcDbTextStyleTableRecord
  2
_TCW_TXTSTY_9
 70
     0
 40
0.0
 41
1.0
 50
0.0
 71
     0
 42
3.522528171539307
  3
TIMES.TTF
  4

1001
ACAD
1000
Times New Roman
1071
      290
  0
STYLE
  5
EC
330
3
100
AcDbSymbolTableRecord
100
AcDbTextStyleTableRecord
  2
_TCW_TXTSTY_A
 70
     0
 40
0.0
 41
1.0
 50
0.0
 71
     0
 42
3.522528171539307
  3
TIMES.TTF
  4

1001
ACAD
1000
Times New Roman
1071
      290
  0
ENDTAB
  0
TABLE
  2
VIEW
  5
6
330
0
100
AcDbSymbolTable
 70
     1
  0
VIEW
  5
37
330
6
100
AcDbSymbolTableRecord
100
AcDbViewTableRecord
  2
View_0
 70
     0
 40
210.0
 10
148.5
 20
105.0
 41
297.0
 11
0.0
 21
0.0
 31
1.0
 12
0.0
 22
0.0
 32
0.0
 42
50.0
 43
0.0
 44
0.0
 50
0.0
 71
     0
281
     0
 72
     0
  0
ENDTAB
  0
TABLE
  2
UCS
  5
7
330
0
100
AcDbSymbolTable
 70
     0
  0
ENDTAB
  0
TABLE
  2
APPID
  5
9
330
0
100
AcDbSymbolTable
 70
     2
  0
APPID
  5
12
330
9
100
AcDbSymbolTableRecord
100
AcDbRegAppTableRecord
  2
ACAD
 70
     0
  0
APPID
  5
2A
330
9
100
AcDbSymbolTableRecord
100
AcDbRegAppTableRecord
  2
TCAD
 70
     0
  0
ENDTAB
  0
TABLE
  2
DIMSTYLE
  5
A
330
0
100
AcDbSymbolTable
 70
     1
100
AcDbDimStyleTable
  0
DIMSTYLE
105
27
330
A
100
AcDbSymbolTableRecord
100
AcDbDimStyleTableRecord
  2
Standard
 70
     0
  3
mm
 41
5.0
 43
0.375
 44
0.125
 45
0.01
 77
     1
 78
     3
140
3.0
143
1.0
147
0.0625
148
0.01
172
     1
176
     7
177
     7
178
     7
179
     2
271
     2
285
     3
340
38
  0
ENDTAB
  0
TABLE
  2
BLOCK_RECORD
  5
1
330
0
100
AcDbSymbolTable
 70
     6
  0
BLOCK_RECORD
  5
1F
330
1
100
AcDbSymbolTableRecord
100
AcDbBlockTableRecord
  2
*Model_Space
340
22
  0
BLOCK_RECORD
  5
1B
330
1
100
AcDbSymbolTableRecord
100
AcDbBlockTableRecord
  2
*Paper_Space
340
1E
  0
BLOCK_RECORD
  5
59
330
1
100
AcDbSymbolTableRecord
100
AcDbBlockTableRecord
  2
*E1
340
0
102
{BLKREFS
331
5D
102
}
  0
BLOCK_RECORD
  5
61
330
1
100
AcDbSymbolTableRecord
100
AcDbBlockTableRecord
  2
*E2
340
0
102
{BLKREFS
331
65
102
}
  0
BLOCK_RECORD
  5
9C
330
1
100
AcDbSymbolTableRecord
100
AcDbBlockTableRecord
  2
*E3
340
0
102
{BLKREFS
331
A0
102
}
  0
BLOCK_RECORD
  5
AF
330
1
100
AcDbSymbolTableRecord
100
AcDbBlockTableRecord
  2
*E4
340
0
102
{BLKREFS
331
B3
102
}
  0
BLOCK_RECORD
  5
CA
330
1
100
AcDbSymbolTableRecord
100
AcDbBlockTableRecord
  2
*E5
340
0
102
{BLKREFS
331
CE
102
}
  0
ENDTAB
  0
ENDSEC
  0
SECTION
  2
BLOCKS
  0
BLOCK
  5
20
330
1F
100
AcDbEntity
  8
0
100
AcDbBlockBegin
  2
*Model_Space
 70
     0
 71
     0
 10
0.0
 20
0.0
 30
0.0
  3
*Model_Space
  1

  0
ENDBLK
  5
21
330
1F
100
AcDbEntity
  8
0
100
AcDbBlockEnd
  0
BLOCK
  5
1C
330
1B
100
AcDbEntity
 67
     1
  8
0
100
AcDbBlockBegin
  2
*Paper_Space
 70
     0
 71
     0
 10
0.0
 20
0.0
 30
0.0
  3
*Paper_Space
  1

  0
ENDBLK
  5
1D
330
1B
100
AcDbEntity
 67
     1
  8
0
100
AcDbBlockEnd
  0
BLOCK
  5
5B
330
59
100
AcDbEntity
  8
0
100
AcDbBlockBegin
  2
*E1
 70
     1
 71
     0
 10
0.0
 20
0.0
 30
0.0
  3
*E1
  1

  0
LWPOLYLINE
  5
5A
330
59
100
AcDbEntity
  8
0
  6
Continuous
 62
     7
370
     0
100
AcDbPolyline
 90
      221
 70
   128
 43
0.0
 10
1053.73266700955
 20
-235.7232170765502
 10
1053.984142068922
 20
-235.7739082557184
 10
1054.222387423709
 20
-235.8203131219366
 10
1054.44888574519
 20
-235.8628371196965
 10
1054.665119704642
 20
-235.9018856934901
 10
1054.872571973345
 20
-235.937864287809
 10
1055.072725222576
 20
-235.9711783471452
 10
1055.267062123613
 20
-236.0022333159904
 10
1055.457065347736
 20
-236.0314346388365
 10
1055.644217566221
 20
-236.0591877601753
 10
1055.830001450348
 20
-236.0858981244985
 10
1056.015899671395
 20
-236.1119711762981
 10
1056.20339490064
 20
-236.1378123600658
 10
1056.393969809362
 20
-236.1638271202934
 10
1056.589107068838
 20
-236.1904209014728
 10
1056.790289350347
 20
-236.2179991480958
 10
1056.998999325168
 20
-236.2469673046542
 10
1057.216719664578
 20
-236.2777308156398
 10
1057.444933039856
 20
-236.3106951255444
 10
1057.685122122281
 20
-236.3462656788598
 10
1057.93876958313
 20
-236.3848479200779
 10
1058.219168578081
 20
-236.4279042496065
 10
1058.49962106693
 20
-236.4706169630495
 10
1058.780125763033
 20
-236.5129917997835
 10
1059.060681379746
 20
-236.5550344991853
 10
1059.341286630427
 20
-236.5967508006316
 10
1059.621940228433
 20
-236.638146443499
 10
1059.902640887119
 20
-236.6792271671643
 10
1060.183387319843
 20
-236.7199987110042
 10
1060.464178239961
 20
-236.7604668143953
 10
1060.74501236083
 20
-236.8006372167144
 10
1061.025888395807
 20
-236.8405156573382
 10
1061.306805058249
 20
-236.8801078756434
 10
1061.587761061512
 20
-236.9194196110066
 10
1061.868755118952
 20
-236.9584566028046
 10
1062.149785943928
 20
-236.9972245904141
 10
1062.430852249795
 20
-237.0357293132117
 10
1062.71195274991
 20
-237.0739765105743
 10
1062.993086157629
 20
-237.1119719218783
 10
1063.274251186311
 20
-237.1497212865007
 10
1063.555446549311
 20
-237.187230343818
 10
1063.853571578279
 20
-237.2270174998867
 10
1064.151681091783
 20
-237.2670368706515
 10
1064.449784013148
 20
-237.307199270074
 10
1064.747889265701
 20
-237.3474155121158
 10
1065.046005772766
 20
-237.3875964107385
 10
1065.344142457671
 20
-237.4276527799036
 10
1065.64230824374
 20
-237.4674954335728
 10
1065.940512054301
 20
-237.5070351857076
 10
1066.238762812678
 20
-237.5461828502696
 10
1066.537069442197
 20
-237.5848492412203
 10
1066.835440866186
 20
-237.6229451725215
 10
1067.133886007968
 20
-237.6603814581345
 10
1067.432413790871
 20
-237.6970689120211
 10
1067.73103313822
 20
-237.7329183481428
 10
1068.029752973342
 20
-237.7678405804613
 10
1068.328582219561
 20
-237.8017464229379
 10
1068.627529800204
 20
-237.8345466895344
 10
1068.926604638598
 20
-237.8661521942124
 10
1069.225815658066
 20
-237.8964737509334
 10
1069.525171781937
 20
-237.9254221736589
 10
1069.787727758038
 20
-237.9496579737161
 10
1070.050380260615
 20
-237.9728810031745
 10
1070.313124174883
 20
-237.9951164053514
 10
1070.57595438606
 20
-238.0163893235648
 10
1070.838865779363
 20
-238.0367249011322
 10
1071.101853240008
 20
-238.0561482813713
 10
1071.364911653214
 20
-238.0746846075999
 10
1071.628035904198
 20
-238.0923590231357
 10
1071.891220878175
 20
-238.1091966712962
 10
1072.154461460365
 20
-238.1252226953991
 10
1072.417752535983
 20
-238.1404622387623
 10
1072.681088990247
 20
-238.1549404447032
 10
1072.944465708375
 20
-238.1686824565397
 10
1073.207877575582
 20
-238.1817134175894
 10
1073.471319477087
 20
-238.19405847117
 10
1073.734786298106
 20
-238.2057427605991
 10
1073.998272923857
 20
-238.2167914291945
 10
1074.261774239557
 20
-238.2272296202738
 10
1074.525285130423
 20
-238.2370824771547
 10
1074.788800481672
 20
-238.2463751431549
 10
1075.134874164638
 20
-238.25776481438
 10
1075.480976312876
 20
-238.2682627155187
 10
1075.827104889767
 20
-238.2779021174332
 10
1076.173257858692
 20
-238.2867162909855
 10
1076.519433183032
 20
-238.2947385070376
 10
1076.865628826168
 20
-238.3020020364517
 10
1077.211842751482
 20
-238.3085401500897
 10
1077.558072922354
 20
-238.3143861188138
 10
1077.904317302165
 20
-238.319573213486
 10
1078.250573854297
 20
-238.3241347049683
 10
1078.596840542132
 20
-238.3281038641229
 10
1078.943115329049
 20
-238.3315139618117
 10
1079.289396178431
 20
-238.3343982688969
 10
1079.635681053657
 20
-238.3367900562405
 10
1079.981967918111
 20
-238.3387225947045
 10
1080.328254735171
 20
-238.3402291551511
 10
1080.67453946822
 20
-238.3413430084422
 10
1081.02082008064
 20
-238.34209742544
 10
1081.36709453581
 20
-238.3425256770065
 10
1081.713360797112
 20
-238.3426610340038
 10
1081.997446313696
 20
-238.3424054792509
 10
1082.281533803044
 20
-238.3416419392082
 10
1082.565622197087
 20
-238.3403751001996
 10
1082.849710427759
 20
-238.338609648549
 10
1083.133797426993
 20
-238.3363502705804
 10
1083.41788212672
 20
-238.3336016526176
 10
1083.701963458876
 20
-238.3303684809847
 10
1083.986040355391
 20
-238.3266554420055
 10
1084.270111748198
 20
-238.322467222004
 10
1084.554176569231
 20
-238.317808507304
 10
1084.838233750423
 20
-238.3126839842296
 10
1085.122282223706
 20
-238.3070983391046
 10
1085.406320921013
 20
-238.3010562582529
 10
1085.690348774277
 20
-238.2945624279985
 10
1085.97436471543
 20
-238.2876215346653
 10
1086.258367676406
 20
-238.2802382645773
 10
1086.542356589137
 20
-238.2724173040583
 10
1086.826330385557
 20
-238.2641633394323
 10
1087.110287997597
 20
-238.2554810570232
 10
1087.394228357192
 20
-238.2463751431549
 10
1087.648361075984
 20
-238.2377621492299
 10
1087.902475987667
 20
-238.2286109945107
 10
1088.156572925324
 20
-238.2189372474655
 10
1088.410651722041
 20
-238.2087564765627
 10
1088.664712210903
 20
-238.1980842502704
 10
1088.918754224995
 20
-238.1869361370569
 10
1089.172777597402
 20
-238.1753277053905
 10
1089.426782161208
 20
-238.1632745237394
 10
1089.680767749499
 20
-238.1507921605717
 10
1089.934734195359
 20
-238.1378961843558
 10
1090.188681331875
 20
-238.12460216356
 10
1090.44260899213
 20
-238.1109256666525
 10
1090.696517009209
 20
-238.0968822621014
 10
1090.950405216198
 20
-238.082487518375
 10
1091.204273446181
 20
-238.0677570039417
 10
1091.458121532243
 20
-238.0527062872696
 10
1091.711949307471
 20
-238.0373509368269
 10
1091.965756604947
 20
-238.021706521082
 10
1092.219543257757
 20
-238.0057886085029
 10
1092.473309098987
 20
-237.9896127675582
 10
1092.769226919547
 20
-237.9705156723345
 10
1093.065137574881
 20
-237.9512227821598
 10
1093.361038050468
 20
-237.9317076135146
 10
1093.656925331783
 20
-237.9119436828796
 10
1093.952796404306
 20
-237.8919045067352
 10
1094.248648253512
 20
-237.8715636015621
 10
1094.544477864879
 20
-237.850894483841
 10
1094.840282223885
 20
-237.8298706700525
 10
1095.136058316005
 20
-237.808465676677
 10
1095.431803126719
 20
-237.7866530201952
 10
1095.727513641504
 20
-237.7644062170878
 10
1096.023186845836
 20
-237.7416987838353
 10
1096.318819725192
 20
-237.7185042369182
 10
1096.614409265051
 20
-237.6947960928173
 10
1096.909952450889
 20
-237.6705478680131
 10
1097.205446268183
 20
-237.6457330789862
 10
1097.500887702412
 20
-237.6203252422172
 10
1097.796273739051
 20
-237.5942978741868
 10
1098.091601363579
 20
-237.5676244913754
 10
1098.386867561473
 20
-237.5402786102637
 10
1098.673428341601
 20
-237.5131117496403
 10
1098.959937498481
 20
-237.4853763633883
 10
1099.246394663249
 20
-237.4570807419838
 10
1099.532799467043
 20
-237.4282331759032
 10
1099.819151540996
 20
-237.3988419556227
 10
1100.105450516247
 20
-237.3689153716186
 10
1100.391696023932
 20
-237.338461714367
 10
1100.677887695186
 20
-237.3074892743443
 10
1100.964025161146
 20
-237.2760063420266
 10
1101.250108052948
 20
-237.2440212078901
 10
1101.536136001728
 20
-237.2115421624113
 10
1101.822108638623
 20
-237.1785774960663
 10
1102.108025594769
 20
-237.1451354993313
 10
1102.393886501302
 20
-237.1112244626825
 10
1102.679690989359
 20
-237.0768526765963
 10
1102.965438690075
 20
-237.0420284315489
 10
1103.251129234587
 20
-237.0067600180165
 10
1103.536762254031
 20
-236.9710557264752
 10
1103.822337379544
 20
-236.9349238474015
 10
1104.107854242261
 20
-236.8983726712716
 10
1104.383243604271
 20
-236.8624291595087
 10
1104.658508619329
 20
-236.8255827500019
 10
1104.933659952594
 20
-236.7879106694025
 10
1105.208708269227
 20
-236.7494901443624
 10
1105.483664234388
 20
-236.7103984015331
 10
1105.758538513239
 20
-236.6707126675664
 10
1106.033341770939
 20
-236.6305101691139
 10
1106.308084672649
 20
-236.5898681328273
 10
1106.58277788353
 20
-236.5488637853582
 10
1106.857432068742
 20
-236.5075743533582
 10
1107.132057893446
 20
-236.4660770634792
 10
1107.406666022802
 20
-236.4244491423728
 10
1107.681267121971
 20
-236.3827678166905
 10
1107.955871856114
 20
-236.341110313084
 10
1108.23049089039
 20
-236.2995538582051
 10
1108.505134889961
 20
-236.2581756787054
 10
1108.779814519987
 20
-236.2170530012365
 10
1109.054540445629
 20
-236.1762630524501
 10
1109.329323332047
 20
-236.1358830589978
 10
1109.604173844401
 20
-236.0959902475315
 10
1110.092897576528
 20
-236.0259053153961
 10
1110.593838090225
 20
-235.954705154092
 10
1111.105631275839
 20
-235.8824698186852
 10
1111.626913023719
 20
-235.8092793642417
 10
1112.156319224212
 20
-235.7352138458274
 10
1112.692485767665
 20
-235.6603533185082
 10
1113.234048544428
 20
-235.5847778373503
 10
1113.779643444847
 20
-235.5085674574196
 10
1114.32790635927
 20
-235.4318022337819
 10
1114.877473178046
 20
-235.3545622215034
 10
1115.426979791522
 20
-235.2769274756499
 10
1115.975062090045
 20
-235.1989780512875
 10
1116.520355963964
 20
-235.1207940034821
 10
1117.061497303627
 20
-235.0424553872997
 10
1117.597121999381
 20
-234.9640422578062
 10
1118.125865941573
 20
-234.8856346700677
 10
1118.646365020553
 20
-234.8073126791501
 10
1119.157255126667
 20
-234.7291563401194
 10
1119.657172150263
 20
-234.6512457080416
 10
1120.14475198169
 20
-234.5736608379825
  0
ENDBLK
  5
5C
330
59
100
AcDbEntity
  8
0
100
AcDbBlockEnd
  0
BLOCK
  5
63
330
61
100
AcDbEntity
  8
0
100
AcDbBlockBegin
  2
*E2
 70
     1
 71
     0
 10
0.0
 20
0.0
 30
0.0
  3
*E2
  1

  0
LWPOLYLINE
  5
62
330
61
100
AcDbEntity
  8
0
  6
Continuous
 62
     7
370
     0
100
AcDbPolyline
 90
      221
 70
   128
 43
0.0
 10
1053.7740134574
 20
-224.3130774278577
 10
1054.025488516772
 20
-224.2623862486895
 10
1054.26373387156
 20
-224.2159813824714
 10
1054.49023219304
 20
-224.1734573847114
 10
1054.706466152493
 20
-224.1344088109179
 10
1054.913918421195
 20
-224.098430216599
 10
1055.114071670426
 20
-224.0651161572628
 10
1055.308408571464
 20
-224.0340611884176
 10
1055.498411795586
 20
-224.0048598655715
 10
1055.685564014071
 20
-223.9771067442327
 10
1055.871347898198
 20
-223.9503963799094
 10
1056.057246119246
 20
-223.9243233281099
 10
1056.244741348491
 20
-223.8984821443422
 10
1056.435316257212
 20
-223.8724673841145
 10
1056.630453516688
 20
-223.8458736029351
 10
1056.831635798198
 20
-223.8182953563122
 10
1057.040345773018
 20
-223.7893271997538
 10
1057.258066112429
 20
-223.7585636887682
 10
1057.486279487707
 20
-223.7255993788636
 10
1057.726468570131
 20
-223.6900288255482
 10
1057.98011603098
 20
-223.65144658433
 10
1058.260515025932
 20
-223.6083902548014
 10
1058.540967514781
 20
-223.5656775413585
 10
1058.821472210883
 20
-223.5233027046245
 10
1059.102027827597
 20
-223.4812600052227
 10
1059.382633078278
 20
-223.4395437037764
 10
1059.663286676283
 20
-223.3981480609089
 10
1059.943987334969
 20
-223.3570673372436
 10
1060.224733767693
 20
-223.3162957934038
 10
1060.505524687811
 20
-223.2758276900126
 10
1060.78635880868
 20
-223.2356572876935
 10
1061.067234843658
 20
-223.1957788470698
 10
1061.348151506099
 20
-223.1561866287646
 10
1061.629107509362
 20
-223.1168748934014
 10
1061.910101566803
 20
-223.0778379016034
 10
1062.191132391778
 20
-223.0390699139939
 10
1062.472198697645
 20
-223.0005651911963
 10
1062.75329919776
 20
-222.9623179938338
 10
1063.03443260548
 20
-222.9243225825297
 10
1063.315597634161
 20
-222.8865732179073
 10
1063.596792997161
 20
-222.84906416059
 10
1063.894918026129
 20
-222.8092770045213
 10
1064.193027539633
 20
-222.7692576337565
 10
1064.491130460998
 20
-222.729095234334
 10
1064.789235713551
 20
-222.6888789922922
 10
1065.087352220617
 20
-222.6486980936695
 10
1065.385488905521
 20
-222.6086417245043
 10
1065.683654691591
 20
-222.5687990708352
 10
1065.981858502151
 20
-222.5292593187004
 10
1066.280109260528
 20
-222.4901116541384
 10
1066.578415890048
 20
-222.4514452631876
 10
1066.876787314036
 20
-222.4133493318865
 10
1067.175232455819
 20
-222.3759130462734
 10
1067.473760238722
 20
-222.3392255923868
 10
1067.772379586071
 20
-222.3033761562651
 10
1068.071099421192
 20
-222.2684539239467
 10
1068.369928667412
 20
-222.2345480814701
 10
1068.668876248055
 20
-222.2017478148736
 10
1068.967951086448
 20
-222.1701423101956
 10
1069.267162105917
 20
-222.1398207534746
 10
1069.566518229787
 20
-222.1108723307491
 10
1069.829074205889
 20
-222.0866365306918
 10
1070.091726708466
 20
-222.0634135012336
 10
1070.354470622734
 20
-222.0411780990566
 10
1070.61730083391
 20
-222.0199051808432
 10
1070.880212227213
 20
-221.9995696032758
 10
1071.143199687859
 20
-221.9801462230366
 10
1071.406258101065
 20
-221.961609896808
 10
1071.669382352048
 20
-221.9439354812723
 10
1071.932567326026
 20
-221.9270978331118
 10
1072.195807908215
 20
-221.9110718090088
 10
1072.459098983834
 20
-221.8958322656457
 10
1072.722435438098
 20
-221.8813540597048
 10
1072.985812156225
 20
-221.8676120478682
 10
1073.249224023433
 20
-221.8545810868186
 10
1073.512665924937
 20
-221.842236033238
 10
1073.776132745957
 20
-221.8305517438089
 10
1074.039619371708
 20
-221.8195030752135
 10
1074.303120687408
 20
-221.8090648841342
 10
1074.566631578273
 20
-221.7992120272532
 10
1074.830146929522
 20
-221.789919361253
 10
1075.176220612489
 20
-221.7785296900279
 10
1075.522322760727
 20
-221.7680317888892
 10
1075.868451337618
 20
-221.7583923869747
 10
1076.214604306543
 20
-221.7495782134225
 10
1076.560779630883
 20
-221.7415559973703
 10
1076.906975274019
 20
-221.7342924679563
 10
1077.253189199332
 20
-221.7277543543183
 10
1077.599419370204
 20
-221.7219083855942
 10
1077.945663750016
 20
-221.716721290922
 10
1078.291920302148
 20
-221.7121597994396
 10
1078.638186989983
 20
-221.7081906402851
 10
1078.9844617769
 20
-221.7047805425963
 10
1079.330742626281
 20
-221.7018962355111
 10
1079.677027501508
 20
-221.6995044481675
 10
1080.023314365961
 20
-221.6975719097035
 10
1080.369601183022
 20
-221.6960653492569
 10
1080.715885916071
 20
-221.6949514959658
 10
1081.06216652849
 20
-221.694197078968
 10
1081.40844098366
 20
-221.6937688274014
 10
1081.754707244962
 20
-221.6936334704042
 10
1082.038792761547
 20
-221.6938890251571
 10
1082.322880250894
 20
-221.6946525651998
 10
1082.606968644938
 20
-221.6959194042084
 10
1082.89105687561
 20
-221.697684855859
 10
1083.175143874843
 20
-221.6999442338276
 10
1083.459228574571
 20
-221.7026928517903
 10
1083.743309906726
 20
-221.7059260234232
 10
1084.027386803241
 20
-221.7096390624025
 10
1084.311458196049
 20
-221.713827282404
 10
1084.595523017081
 20
-221.7184859971039
 10
1084.879580198273
 20
-221.7236105201784
 10
1085.163628671556
 20
-221.7291961653034
 10
1085.447667368863
 20
-221.7352382461551
 10
1085.731695222127
 20
-221.7417320764095
 10
1086.015711163281
 20
-221.7486729697427
 10
1086.299714124257
 20
-221.7560562398307
 10
1086.583703036988
 20
-221.7638772003497
 10
1086.867676833408
 20
-221.7721311649757
 10
1087.151634445448
 20
-221.7808134473848
 10
1087.435574805042
 20
-221.789919361253
 10
1087.689707523835
 20
-221.7985323551781
 10
1087.943822435517
 20
-221.8076835098973
 10
1088.197919373174
 20
-221.8173572569424
 10
1088.451998169892
 20
-221.8275380278453
 10
1088.706058658754
 20
-221.8382102541376
 10
1088.960100672846
 20
-221.849358367351
 10
1089.214124045252
 20
-221.8609667990175
 10
1089.468128609059
 20
-221.8730199806687
 10
1089.72211419735
 20
-221.8855023438363
 10
1089.97608064321
 20
-221.8983983200521
 10
1090.230027779725
 20
-221.9116923408479
 10
1090.48395543998
 20
-221.9253688377555
 10
1090.737863457059
 20
-221.9394122423066
 10
1090.991751664048
 20
-221.9538069860329
 10
1091.245619894031
 20
-221.9685375004663
 10
1091.499467980094
 20
-221.9835882171384
 10
1091.753295755321
 20
-221.9989435675811
 10
1092.007103052797
 20
-222.014587983326
 10
1092.260889705608
 20
-222.030505895905
 10
1092.514655546838
 20
-222.0466817368498
 10
1092.810573367397
 20
-222.0657788320734
 10
1093.106484022732
 20
-222.0850717222482
 10
1093.402384498318
 20
-222.1045868908934
 10
1093.698271779634
 20
-222.1243508215285
 10
1093.994142852156
 20
-222.1443899976728
 10
1094.289994701362
 20
-222.1647309028458
 10
1094.585824312729
 20
-222.1854000205669
 10
1094.881628671735
 20
-222.2064238343555
 10
1095.177404763856
 20
-222.227828827731
 10
1095.47314957457
 20
-222.2496414842127
 10
1095.768860089354
 20
-222.2718882873202
 10
1096.064533293686
 20
-222.2945957205727
 10
1096.360166173043
 20
-222.3177902674898
 10
1096.655755712901
 20
-222.3414984115907
 10
1096.951298898739
 20
-222.3657466363949
 10
1097.246792716034
 20
-222.3905614254218
 10
1097.542234150262
 20
-222.4159692621908
 10
1097.837620186902
 20
-222.4419966302212
 10
1098.13294781143
 20
-222.4686700130326
 10
1098.428214009323
 20
-222.4960158941443
 10
1098.714774789451
 20
-222.5231827547676
 10
1099.001283946332
 20
-222.5509181410197
 10
1099.2877411111
 20
-222.5792137624241
 10
1099.574145914893
 20
-222.6080613285048
 10
1099.860497988847
 20
-222.6374525487852
 10
1100.146796964098
 20
-222.6673791327894
 10
1100.433042471783
 20
-222.697832790041
 10
1100.719234143037
 20
-222.7288052300638
 10
1101.005371608996
 20
-222.7602881623814
 10
1101.291454500798
 20
-222.7922732965177
 10
1101.577482449579
 20
-222.8247523419966
 10
1101.863455086474
 20
-222.8577170083417
 10
1102.14937204262
 20
-222.8911590050767
 10
1102.435232949153
 20
-222.9250700417254
 10
1102.721037437209
 20
-222.9594418278116
 10
1103.006785137925
 20
-222.9942660728591
 10
1103.292475682437
 20
-223.0295344863916
 10
1103.578108701882
 20
-223.0652387779327
 10
1103.863683827394
 20
-223.1013706570064
 10
1104.149200690111
 20
-223.1379218331364
 10
1104.424590052122
 20
-223.1738653448992
 10
1104.69985506718
 20
-223.2107117544061
 10
1104.975006400445
 20
-223.2483838350055
 10
1105.250054717078
 20
-223.2868043600456
 10
1105.525010682239
 20
-223.3258961028749
 10
1105.799884961089
 20
-223.3655818368416
 10
1106.07468821879
 20
-223.4057843352941
 10
1106.3494311205
 20
-223.4464263715808
 10
1106.62412433138
 20
-223.4874307190498
 10
1106.898778516593
 20
-223.5287201510497
 10
1107.173404341296
 20
-223.5702174409287
 10
1107.448012470653
 20
-223.6118453620352
 10
1107.722613569822
 20
-223.6535266877175
 10
1107.997218303964
 20
-223.695184191324
 10
1108.271837338241
 20
-223.7367406462029
 10
1108.546481337812
 20
-223.7781188257026
 10
1108.821160967838
 20
-223.8192415031716
 10
1109.095886893479
 20
-223.8600314519579
 10
1109.370669779897
 20
-223.9004114454101
 10
1109.645520292252
 20
-223.9403042568765
 10
1110.134244024379
 20
-224.0103891890118
 10
1110.635184538075
 20
-224.081589350316
 10
1111.14697772369
 20
-224.1538246857228
 10
1111.668259471569
 20
-224.2270151401663
 10
1112.197665672062
 20
-224.3010806585806
 10
1112.733832215516
 20
-224.3759411858997
 10
1113.275394992278
 20
-224.4515166670576
 10
1113.820989892698
 20
-224.5277270469884
 10
1114.369252807121
 20
-224.6044922706261
 10
1114.918819625897
 20
-224.6817322829046
 10
1115.468326239373
 20
-224.7593670287581
 10
1116.016408537896
 20
-224.8373164531205
 10
1116.561702411815
 20
-224.9155005009259
 10
1117.102843751477
 20
-224.9938391171083
 10
1117.638468447231
 20
-225.0722522466017
 10
1118.167212389424
 20
-225.1506598343403
 10
1118.687711468403
 20
-225.2289818252579
 10
1119.198601574517
 20
-225.3071381642886
 10
1119.698518598114
 20
-225.3850487963664
 10
1120.186098429541
 20
-225.4626336664254
  0
ENDBLK
  5
64
330
61
100
AcDbEntity
  8
0
100
AcDbBlockEnd
  0
BLOCK
  5
9E
330
9C
100
AcDbEntity
  8
0
100
AcDbBlockBegin
  2
*E3
 70
     1
 71
     0
 10
0.0
 20
0.0
 30
0.0
  3
*E3
  1

  0
LWPOLYLINE
  5
9D
330
9C
100
AcDbEntity
  8
0
  6
HIDDEN
 62
     5
420
      255
370
     0
100
AcDbPolyline
 90
      161
 70
   128
 43
0.0
 10
904.4698625208423
 20
-398.7740781625965
 10
905.0421737543726
 20
-398.7140659897588
 10
905.687236638645
 20
-398.6457036560378
 10
906.3969560177255
 20
-398.5698217970119
 10
907.1632367356812
 20
-398.4872510482597
 10
907.977983636578
 20
-398.3988220453593
 10
908.8331015644825
 20
-398.3053654238894
 10
909.7204953634616
 20
-398.2077118194284
 10
910.6320698775816
 20
-398.1066918675546
 10
911.5597299509086
 20
-398.0031362038463
 10
912.4953804275095
 20
-397.897875463882
 10
913.4309261514511
 20
-397.7917402832404
 10
914.3582719667993
 20
-397.6855612974996
 10
915.2693227176209
 20
-397.5801691422381
 10
916.1559832479822
 20
-397.4763944530343
 10
917.01015840195
 20
-397.3750678654666
 10
917.8237530235906
 20
-397.2770200151135
 10
918.5886719569705
 20
-397.1830815375533
 10
919.2968200461562
 20
-397.0940830683645
 10
919.9401021352143
 20
-397.0108552431254
 10
920.5104230682111
 20
-396.9342286974146
 10
921.0135906415065
 20
-396.8649993471609
 10
921.5167534729442
 20
-396.7956758504829
 10
922.0199019403259
 20
-396.7262004269958
 10
922.5230264214542
 20
-396.6565152963151
 10
923.026117294131
 20
-396.5865626780561
 10
923.5291649361587
 20
-396.5162847918341
 10
924.0321597253396
 20
-396.4456238572645
 10
924.5350920394759
 20
-396.3745220939629
 10
925.0379522563694
 20
-396.3029217215442
 10
925.5407307538226
 20
-396.230764959624
 10
926.043417909638
 20
-396.1579940278177
 10
926.5460041016174
 20
-396.0845511457407
 10
927.048479707563
 20
-396.0103785330082
 10
927.5508351052773
 20
-395.9354184092356
 10
928.0530606725623
 20
-395.8596129940383
 10
928.5551467872203
 20
-395.7829045070316
 10
929.0570838270535
 20
-395.705235167831
 10
929.5588621698639
 20
-395.6265471960517
 10
930.060472193454
 20
-395.5467828113091
 10
930.5619042756259
 20
-395.4658842332186
 10
931.0064370925957
 20
-395.3934461284403
 10
931.4509252824535
 20
-395.3205949160968
 10
931.8953525308962
 20
-395.2472615179207
 10
932.3397025236212
 20
-395.1733768556447
 10
932.7839589463256
 20
-395.0988718510014
 10
933.2281054847066
 20
-395.0236774257235
 10
933.6721258244617
 20
-394.9477245015437
 10
934.1160036512879
 20
-394.8709440001949
 10
934.559722650882
 20
-394.7932668434094
 10
935.0032665089417
 20
-394.71462395292
 10
935.4466189111644
 20
-394.6349462504596
 10
935.8897635432469
 20
-394.5541646577606
 10
936.3326840908863
 20
-394.4722100965557
 10
936.7753642397803
 20
-394.3890134885778
 10
937.2177876756257
 20
-394.3045057555594
 10
937.6599380841199
 20
-394.2186178192332
 10
938.1017991509599
 20
-394.1312806013319
 10
938.5433545618432
 20
-394.0424250235882
 10
938.9845880024667
 20
-393.9519820077347
 10
939.4254831585279
 20
-393.8598824755042
 10
939.8986403895606
 20
-393.7589578233463
 10
940.3713407759639
 20
-393.6559638990091
 10
940.8436154557666
 20
-393.5510439062613
 10
941.315495566998
 20
-393.4443410488718
 10
941.787012247687
 20
-393.3359985306092
 10
942.258196635863
 20
-393.2261595552425
 10
942.7290798695549
 20
-393.1149673265405
 10
943.1996930867921
 20
-393.002565048272
 10
943.670067425603
 20
-392.8890959242057
 10
944.1402340240172
 20
-392.7747031581104
 10
944.6102240200642
 20
-392.6595299537551
 10
945.0800685517723
 20
-392.5437195149084
 10
945.5497987571712
 20
-392.4274150453392
 10
946.0194457742896
 20
-392.3107597488163
 10
946.4890407411568
 20
-392.1938968291085
 10
946.958614795802
 20
-392.0769694899846
 10
947.4281990762541
 20
-391.9601209352134
 10
947.8978247205423
 20
-391.8434943685637
 10
948.3675228666956
 20
-391.7272329938044
 10
948.8373246527433
 20
-391.6114800147042
 10
949.3292287608521
 20
-391.4906232456071
 10
949.821134268177
 20
-391.3697498678316
 10
950.313027745279
 20
-391.2488094074716
 10
950.804895762719
 20
-391.1277513906217
 10
951.2967248910576
 20
-391.0065253433761
 10
951.7885017008562
 20
-390.8850807918292
 10
952.2802127626755
 20
-390.7633672620754
 10
952.7718446470768
 20
-390.6413342802091
 10
953.2633839246204
 20
-390.5189313723244
 10
953.7548171658675
 20
-390.3961080645158
 10
954.2461309413794
 20
-390.2728138828778
 10
954.7373118217167
 20
-390.1489983535046
 10
955.2283463774404
 20
-390.0246110024905
 10
955.7192211791114
 20
-389.8996013559299
 10
956.2099227972907
 20
-389.7739189399172
 10
956.7004378025392
 20
-389.6475132805467
 10
957.190752765418
 20
-389.5203339039127
 10
957.6808542564877
 20
-389.3923303361096
 10
958.1707288463094
 20
-389.2634521032317
 10
958.6603631054443
 20
-389.1336487313735
 10
959.1793530398867
 20
-388.9949028281868
 10
959.6980469274599
 20
-388.8550598001095
 10
960.2164666164099
 20
-388.7142008476937
 10
960.7346339549833
 20
-388.5724071714917
 10
961.2525707914263
 20
-388.4297599720556
 10
961.7702989739848
 20
-388.2863404499378
 10
962.2878403509059
 20
-388.1422298056904
 10
962.8052167704353
 20
-387.9975092398656
 10
963.3224500808192
 20
-387.8522599530155
 10
963.8395621303041
 20
-387.7065631456925
 10
964.3565747671366
 20
-387.5605000184489
 10
964.8735098395626
 20
-387.4141517718366
 10
965.3903891958284
 20
-387.2675996064081
 10
965.9072346841806
 20
-387.1209247227154
 10
966.4240681528652
 20
-386.9742083213109
 10
966.9409114501285
 20
-386.8275316027466
 10
967.4577864242169
 20
-386.6809757675749
 10
967.9747149233767
 20
-386.534622016348
 10
968.491718795854
 20
-386.3885515496181
 10
969.0088198898954
 20
-386.2428455679373
 10
969.5438076836547
 20
-386.0929312913625
 10
970.0790864422597
 20
-385.9439960242432
 10
970.6146000970477
 20
-385.7958501291035
 10
971.1502925793566
 20
-385.6483039684675
 10
971.6861078205233
 20
-385.5011679048594
 10
972.2219897518856
 20
-385.3542523008034
 10
972.7578823047812
 20
-385.2073675188237
 10
973.2937294105477
 20
-385.0603239214446
 10
973.8294750005219
 20
-384.91293187119
 10
974.365063006042
 20
-384.7650017305842
 10
974.9004373584454
 20
-384.6163438621516
 10
975.4355419890695
 20
-384.466768628416
 10
975.9703208292518
 20
-384.3160863919019
 10
976.5047178103298
 20
-384.1641075151333
 10
977.0386768636412
 20
-384.0106423606345
 10
977.5721419205232
 20
-383.8555012909296
 10
978.1050569123137
 20
-383.6984946685429
 10
978.6373657703498
 20
-383.5394328559984
 10
979.1690124259693
 20
-383.3781262158204
 10
979.6999408105096
 20
-383.214385110533
 10
980.431028566437
 20
-382.9829025620245
 10
981.2307674866128
 20
-382.7223673709618
 10
982.0914862974283
 20
-382.4358750882371
 10
983.0055137252759
 20
-382.1265212647426
 10
983.965178496547
 20
-381.7974014513703
 10
984.9628093376335
 20
-381.4516111990126
 10
985.9907349749275
 20
-381.0922460585615
 10
987.0412841348209
 20
-380.7224015809093
 10
988.106785543705
 20
-380.345173316948
 10
989.179567927972
 20
-379.9636568175699
 10
990.2519600140141
 20
-379.5809476336672
 10
991.3162905282228
 20
-379.200141316132
 10
992.3648881969898
 20
-378.8243334158565
 10
993.3900817467071
 20
-378.4566194837328
 10
994.3841999037667
 20
-378.1000950706531
 10
995.3395713945603
 20
-377.7578557275096
 10
996.2485249454797
 20
-377.4329970051944
 10
997.1033892829169
 20
-377.1286144545998
 10
997.8964931332636
 20
-376.8478036266179
 10
998.6201652229117
 20
-376.5936600721408
  0
ENDBLK
  5
9F
330
9C
100
AcDbEntity
  8
0
100
AcDbBlockEnd
  0
BLOCK
  5
B1
330
AF
100
AcDbEntity
  8
0
100
AcDbBlockBegin
  2
*E4
 70
     1
 71
     0
 10
0.0
 20
0.0
 30
0.0
  3
*E4
  1

  0
LWPOLYLINE
  5
B0
330
AF
100
AcDbEntity
  8
0
  6
Continuous
 62
     7
370
     0
100
AcDbPolyline
 90
      421
 70
   128
 43
0.0
 10
1056.706322371658
 20
-393.6324710009657
 10
1056.720045123763
 20
-393.6275680804305
 10
1056.733768148936
 20
-393.6226659236461
 10
1056.747491447113
 20
-393.617764530635
 10
1056.76121501823
 20
-393.6128639014202
 10
1056.774938862224
 20
-393.6079640360242
 10
1056.788662979029
 20
-393.6030649344698
 10
1056.802387368584
 20
-393.5981665967799
 10
1056.816112030824
 20
-393.5932690229773
 10
1056.829836965685
 20
-393.5883722130844
 10
1056.843562173103
 20
-393.5834761671241
 10
1056.857287653015
 20
-393.5785808851194
 10
1056.871013405357
 20
-393.5736863670928
 10
1056.884739430064
 20
-393.5687926130672
 10
1056.898465727075
 20
-393.5638996230651
 10
1056.912192296323
 20
-393.5590073971096
 10
1056.925919137747
 20
-393.5541159352231
 10
1056.939646251281
 20
-393.5492252374286
 10
1056.953373636863
 20
-393.5443353037488
 10
1056.967101294428
 20
-393.5394461342063
 10
1056.980829223912
 20
-393.534557728824
 10
1057.013263989055
 20
-393.5230206510589
 10
1057.045705428089
 20
-393.5115021606944
 10
1057.078152411266
 20
-393.4999991124491
 10
1057.110603808836
 20
-393.4885083610415
 10
1057.143058491049
 20
-393.47702676119
 10
1057.175515328156
 20
-393.4655511676134
 10
1057.207973190409
 20
-393.4540784350301
 10
1057.240430948056
 20
-393.4426054181587
 10
1057.272887471349
 20
-393.4311289717177
 10
1057.305341630538
 20
-393.4196459504255
 10
1057.337792295875
 20
-393.408153209001
 10
1057.370238337609
 20
-393.3966476021624
 10
1057.40267862599
 20
-393.3851259846284
 10
1057.435112031271
 20
-393.3735852111176
 10
1057.4675374237
 20
-393.3620221363483
 10
1057.499953673529
 20
-393.3504336150393
 10
1057.532359651008
 20
-393.338816501909
 10
1057.564754226387
 20
-393.327167651676
 10
1057.597136269918
 20
-393.3154839190587
 10
1057.629504651851
 20
-393.3037621587759
 10
1057.676649532744
 20
-393.2866381602385
 10
1057.723783209066
 20
-393.2694834256897
 10
1057.770906358246
 20
-393.2522998204434
 10
1057.818019657714
 20
-393.2350892098135
 10
1057.865123784898
 20
-393.2178534591139
 10
1057.912219417227
 20
-393.2005944336585
 10
1057.959307232131
 20
-393.1833139987613
 10
1058.006387907039
 20
-393.166014019736
 10
1058.053462119379
 20
-393.1486963618965
 10
1058.100530546581
 20
-393.1313628905567
 10
1058.147593866075
 20
-393.1140154710308
 10
1058.194652755289
 20
-393.0966559686323
 10
1058.241707891651
 20
-393.0792862486753
 10
1058.288759952592
 20
-393.0619081764736
 10
1058.335809615541
 20
-393.0445236173412
 10
1058.382857557926
 20
-393.0271344365918
 10
1058.429904457177
 20
-393.0097424995395
 10
1058.476950990722
 20
-392.9923496714981
 10
1058.523997835991
 20
-392.9749578177815
 10
1058.571045670414
 20
-392.9575688037036
 10
1058.607262488456
 20
-392.9441701181921
 10
1058.643470476985
 20
-392.9307476043723
 10
1058.679670688703
 20
-392.9173041039901
 10
1058.71586417631
 20
-392.9038424587915
 10
1058.75205199251
 20
-392.8903655105225
 10
1058.788235190003
 20
-392.876876100929
 10
1058.824414821492
 20
-392.8633770717572
 10
1058.860591939679
 20
-392.849871264753
 10
1058.896767597264
 20
-392.8363615216623
 10
1058.93294284695
 20
-392.8228506842311
 10
1058.969118741439
 20
-392.8093415942056
 10
1059.005296333432
 20
-392.7958370933316
 10
1059.041476675631
 20
-392.7823400233551
 10
1059.077660820738
 20
-392.7688532260221
 10
1059.113849821455
 20
-392.7553795430787
 10
1059.150044730484
 20
-392.7419218162707
 10
1059.186246600525
 20
-392.7284828873443
 10
1059.222456484282
 20
-392.7150655980454
 10
1059.258675434455
 20
-392.70167279012
 10
1059.294904503747
 20
-392.688307305314
 10
1059.352632940941
 20
-392.6670529897874
 10
1059.410371176301
 20
-392.6458253533166
 10
1059.468118208766
 20
-392.6246216696543
 10
1059.525873037279
 20
-392.6034392125537
 10
1059.583634660782
 20
-392.5822752557676
 10
1059.641402078215
 20
-392.5611270730489
 10
1059.699174288522
 20
-392.5399919381506
 10
1059.756950290644
 20
-392.5188671248258
 10
1059.814729083522
 20
-392.4977499068272
 10
1059.872509666098
 20
-392.4766375579077
 10
1059.930291037315
 20
-392.4555273518206
 10
1059.988072196113
 20
-392.4344165623185
 10
1060.045852141434
 20
-392.4133024631545
 10
1060.103629872221
 20
-392.3921823280814
 10
1060.161404387415
 20
-392.3710534308524
 10
1060.219174685957
 20
-392.3499130452202
 10
1060.27693976679
 20
-392.3287584449378
 10
1060.334698628854
 20
-392.3075869037582
 10
1060.392450271093
 20
-392.2863956954344
 10
1060.450193692447
 20
-392.2651820937191
 10
1060.502321828825
 20
-392.2460150496389
 10
1060.554447401573
 20
-392.2268410222008
 10
1060.606570411858
 20
-392.2076600188049
 10
1060.658690860845
 20
-392.1884720468515
 10
1060.710808749702
 20
-392.1692771137406
 10
1060.762924079596
 20
-392.1500752268725
 10
1060.815036851692
 20
-392.1308663936474
 10
1060.867147067159
 20
-392.1116506214654
 10
1060.919254727161
 20
-392.0924279177266
 10
1060.971359832866
 20
-392.0731982898312
 10
1061.023462385441
 20
-392.0539617451797
 10
1061.075562386053
 20
-392.0347182911718
 10
1061.127659835867
 20
-392.0154679352078
 10
1061.17975473605
 20
-391.996210684688
 10
1061.231847087769
 20
-391.9769465470125
 10
1061.283936892192
 20
-391.9576755295815
 10
1061.336024150483
 20
-391.9383976397951
 10
1061.388108863811
 20
-391.9191128850536
 10
1061.440191033341
 20
-391.899821272757
 10
1061.492270660241
 20
-391.8805228103055
 10
1061.576523575053
 20
-391.849282856736
 10
1061.66076854005
 20
-391.8180214754281
 10
1061.745006506973
 20
-391.7867412319788
 10
1061.829238427563
 20
-391.7554446919852
 10
1061.91346525356
 20
-391.7241344210441
 10
1061.997687936705
 20
-391.6928129847527
 10
1062.081907428738
 20
-391.6614829487077
 10
1062.166124681402
 20
-391.6301468785064
 10
1062.250340646435
 20
-391.5988073397454
 10
1062.33455627558
 20
-391.5674668980218
 10
1062.418772520576
 20
-391.5361281189329
 10
1062.502990333165
 20
-391.5047935680753
 10
1062.587210665087
 20
-391.4734658110461
 10
1062.671434468084
 20
-391.4421474134423
 10
1062.755662693895
 20
-391.4108409408609
 10
1062.839896294261
 20
-391.3795489588987
 10
1062.924136220924
 20
-391.3482740331528
 10
1063.008383425624
 20
-391.3170187292203
 10
1063.092638860102
 20
-391.2857856126979
 10
1063.176903476098
 20
-391.2545772491828
 10
1063.248042921754
 20
-391.228289138494
 10
1063.31921001149
 20
-391.2020752124516
 10
1063.390400533078
 20
-391.1759241831119
 10
1063.461610274291
 20
-391.1498247625318
 10
1063.5328350229
 20
-391.1237656627677
 10
1063.604070566678
 20
-391.0977355958761
 10
1063.675312693397
 20
-391.0717232739138
 10
1063.74655719083
 20
-391.0457174089373
 10
1063.817799846748
 20
-391.0197067130031
 10
1063.889036448923
 20
-390.9936798981678
 10
1063.960262785129
 20
-390.9676256764883
 10
1064.031474643136
 20
-390.9415327600209
 10
1064.102667810717
 20
-390.9153898608221
 10
1064.173838075645
 20
-390.8891856909488
 10
1064.244981225691
 20
-390.8629089624573
 10
1064.316093048629
 20
-390.8365483874044
 10
1064.387169332229
 20
-390.8100926778466
 10
1064.458205864264
 20
-390.7835305458404
 10
1064.529198432506
 20
-390.7568507034426
 10
1064.600142824728
 20
-390.7300418627096
 10
1064.681455497741
 20
-390.6991646595962
 10
1064.762729074506
 20
-390.6681852451343
 10
1064.843966066774
 20
-390.6371102173541
 10
1064.925168986298
 20
-390.6059461742865
 10
1065.006340344828
 20
-390.5746997139618
 10
1065.087482654116
 20
-390.5433774344107
 10
1065.168598425913
 20
-390.5119859336638
 10
1065.24969017197
 20
-390.4805318097517
 10
1065.330760404038
 20
-390.4490216607047
 10
1065.411811633869
 20
-390.4174620845537
 10
1065.492846373215
 20
-390.3858596793293
 10
1065.573867133826
 20
-390.3542210430618
 10
1065.654876427453
 20
-390.3225527737819
 10
1065.735876765848
 20
-390.2908614695202
 10
1065.816870660763
 20
-390.2591537283074
 10
1065.897860623948
 20
-390.2274361481738
 10
1065.978849167154
 20
-390.1957153271501
 10
1066.059838802134
 20
-390.163997863267
 10
1066.140832040638
 20
-390.1322903545549
 10
1066.221831394418
 20
-390.1005993990445
 10
1066.299975898113
 20
-390.0700205717507
 10
1066.378109571841
 20
-390.0394140932229
 10
1066.456232884566
 20
-390.0087811699759
 10
1066.534346305255
 20
-389.9781230085245
 10
1066.61245030287
 20
-389.9474408153836
 10
1066.690545346379
 20
-389.9167357970679
 10
1066.768631904745
 20
-389.8860091600925
 10
1066.846710446935
 20
-389.8552621109721
 10
1066.924781441913
 20
-389.8244958562214
 10
1067.002845358644
 20
-389.7937116023554
 10
1067.080902666094
 20
-389.762910555889
 10
1067.158953833227
 20
-389.7320939233369
 10
1067.236999329009
 20
-389.7012629112139
 10
1067.315039622405
 20
-389.670418726035
 10
1067.393075182379
 20
-389.6395625743149
 10
1067.471106477898
 20
-389.6086956625686
 10
1067.549133977926
 20
-389.5778191973108
 10
1067.627158151428
 20
-389.5469343850564
 10
1067.705179467369
 20
-389.5160424323201
 10
1067.783198394715
 20
-389.4851445456169
 10
1067.883088671566
 20
-389.4455898915625
 10
1067.982983893971
 20
-389.4060474135035
 10
1068.082882295421
 20
-389.3665127103497
 10
1068.182782109405
 20
-389.3269813810109
 10
1068.282681569413
 20
-389.2874490243968
 10
1068.382578908936
 20
-389.2479112394174
 10
1068.482472361464
 20
-389.2083636249823
 10
1068.582360160486
 20
-389.1688017800015
 10
1068.682240539492
 20
-389.1292213033846
 10
1068.782111731973
 20
-389.0896177940413
 10
1068.881971971418
 20
-389.0499868508819
 10
1068.981819491318
 20
-389.0103240728156
 10
1069.081652525162
 20
-388.9706250587525
 10
1069.181469306441
 20
-388.9308854076025
 10
1069.281268068645
 20
-388.8911007182751
 10
1069.381047045263
 20
-388.8512665896804
 10
1069.480804469785
 20
-388.811378620728
 10
1069.580538575703
 20
-388.7714324103277
 10
1069.680247596504
 20
-388.7314235573893
 10
1069.779929765681
 20
-388.6913476608227
 10
1069.880530142149
 20
-388.6508089744146
 10
1069.981095923843
 20
-388.6101848786754
 10
1070.081630212521
 20
-388.5694830282526
 10
1070.182136109947
 20
-388.528711077794
 10
1070.282616717881
 20
-388.4878766819471
 10
1070.383075138084
 20
-388.4469874953594
 10
1070.483514472318
 20
-388.4060511726787
 10
1070.583937822344
 20
-388.3650753685527
 10
1070.684348289923
 20
-388.3240677376286
 10
1070.784748976817
 20
-388.2830359345544
 10
1070.885142984788
 20
-388.2419876139777
 10
1070.985533415596
 20
-388.200930430546
 10
1071.085923371002
 20
-388.1598720389069
 10
1071.186315952768
 20
-388.1188200937081
 10
1071.286714262656
 20
-388.0777822495971
 10
1071.387121402426
 20
-388.0367661612217
 10
1071.48754047384
 20
-387.9957794832294
 10
1071.58797457866
 20
-387.9548298702678
 10
1071.688426818646
 20
-387.9139249769845
 10
1071.788900295559
 20
-387.8730724580273
 10
1071.850236609808
 20
-387.8481597674203
 10
1071.911577192298
 20
-387.823257581607
 10
1071.972921933865
 20
-387.7983656354428
 10
1072.034270725346
 20
-387.7734836637837
 10
1072.095623457577
 20
-387.7486114014851
 10
1072.156980021395
 20
-387.7237485834028
 10
1072.218340307637
 20
-387.6988949443926
 10
1072.279704207139
 20
-387.6740502193103
 10
1072.341071610736
 20
-387.6492141430113
 10
1072.402442409267
 20
-387.6243864503515
 10
1072.463816493567
 20
-387.5995668761868
 10
1072.525193754472
 20
-387.5747551553725
 10
1072.58657408282
 20
-387.5499510227646
 10
1072.647957369447
 20
-387.5251542132187
 10
1072.709343505189
 20
-387.5003644615907
 10
1072.770732380883
 20
-387.475581502736
 10
1072.832123887365
 20
-387.4508050715105
 10
1072.893517915472
 20
-387.4260349027699
 10
1072.954914356041
 20
-387.4012707313698
 10
1073.016313099907
 20
-387.3765122921661
 10
1073.157862239181
 20
-387.3194340408669
 10
1073.299407129375
 20
-387.2623451562653
 10
1073.440949034875
 20
-387.2052487919697
 10
1073.582489220067
 20
-387.1481481015888
 10
1073.724028949339
 20
-387.0910462387308
 10
1073.865569487076
 20
-387.0339463570043
 10
1074.007112097665
 20
-386.9768516100179
 10
1074.148658045494
 20
-386.9197651513801
 10
1074.290208594949
 20
-386.8626901346992
 10
1074.431765010416
 20
-386.8056297135837
 10
1074.573328556283
 20
-386.7485870416425
 10
1074.714900496935
 20
-386.6915652724836
 10
1074.856482096761
 20
-386.6345675597157
 10
1074.998074620145
 20
-386.5775970569474
 10
1075.139679331475
 20
-386.520656917787
 10
1075.281297495139
 20
-386.4637502958431
 10
1075.422930375521
 20
-386.4068803447242
 10
1075.56457923701
 20
-386.3500502180387
 10
1075.706245343991
 20
-386.2932630693952
 10
1075.847929960852
 20
-386.2365220524022
 10
1075.959131828016
 20
-386.1919565458967
 10
1076.070302744044
 20
-386.1473102335326
 10
1076.181450161644
 20
-386.1026023669688
 10
1076.292581533526
 20
-386.0578521978647
 10
1076.403704312399
 20
-386.0130789778793
 10
1076.51482595097
 20
-385.9683019586719
 10
1076.62595390195
 20
-385.9235403919016
 10
1076.737095618045
 20
-385.8788135292277
 10
1076.848258551967
 20
-385.834140622309
 10
1076.959450156422
 20
-385.789540922805
 10
1077.07067788412
 20
-385.7450336823749
 10
1077.18194918777
 20
-385.7006381526776
 10
1077.29327152008
 20
-385.6563735853724
 10
1077.404652333759
 20
-385.6122592321186
 10
1077.516099081516
 20
-385.5683143445751
 10
1077.627619216059
 20
-385.5245581744012
 10
1077.739220190098
 20
-385.4810099732562
 10
1077.850909456341
 20
-385.437688992799
 10
1077.962694467496
 20
-385.3946144846889
 10
1078.074582676274
 20
-385.3518057005851
 10
1078.225536336613
 20
-385.2943892634721
 10
1078.376569263496
 20
-385.237181994396
 10
1078.527677888704
 20
-385.1801747512434
 10
1078.678858644022
 20
-385.1233583919015
 10
1078.83010796123
 20
-385.0667237742568
 10
1078.981422272112
 20
-385.0102617561965
 10
1079.132798008451
 20
-384.9539631956073
 10
1079.284231602029
 20
-384.8978189503762
 10
1079.435719484628
 20
-384.8418198783899
 10
1079.587258088031
 20
-384.7859568375353
 10
1079.738843844022
 20
-384.7302206856994
 10
1079.890473184382
 20
-384.674602280769
 10
1080.042142540895
 20
-384.619092480631
 10
1080.193848345342
 20
-384.5636821431722
 10
1080.345587029507
 20
-384.5083621262796
 10
1080.497355025173
 20
-384.45312328784
 10
1080.64914876412
 20
-384.3979564857402
 10
1080.800964678134
 20
-384.3428525778671
 10
1080.952799198995
 20
-384.2878024221077
 10
1081.104648758487
 20
-384.2327968763488
 10
1081.355061093694
 20
-384.1422244776614
 10
1081.605534489864
 20
-384.0518216710221
 10
1081.856064306654
 20
-383.9615755743812
 10
1082.106645903719
 20
-383.8714733056891
 10
1082.357274640715
 20
-383.7815019828961
 10
1082.607945877298
 20
-383.6916487239526
 10
1082.858654973122
 20
-383.6019006468092
 10
1083.109397287844
 20
-383.5122448694161
 10
1083.360168181118
 20
-383.4226685097236
 10
1083.610963012602
 20
-383.3331586856823
 10
1083.861777141949
 20
-383.2437025152426
 10
1084.112605928817
 20
-383.1542871163547
 10
1084.36344473286
 20
-383.0648996069691
 10
1084.614288913733
 20
-382.9755271050362
 10
1084.865133831094
 20
-382.8861567285064
 10
1085.115974844596
 20
-382.79677559533
 10
1085.366807313897
 20
-382.7073708234576
 10
1085.61762659865
 20
-382.6179295308393
 10
1085.868428058512
 20
-382.5284388354256
 10
1086.119207053139
 20
-382.438885855167
 10
1086.299581346555
 20
-382.3743567203671
 10
1086.479906592705
 20
-382.3096873925264
 10
1086.660192121914
 20
-382.2449045025444
 10
1086.840447264508
 20
-382.1800346813209
 10
1087.020681350814
 20
-382.1151045597555
 10
1087.200903711155
 20
-382.0501407687478
 10
1087.381123675859
 20
-381.9851699391975
 10
1087.56135057525
 20
-381.9202187020044
 10
1087.741593739654
 20
-381.855313688068
 10
1087.921862499396
 20
-381.790481528288
 10
1088.102166184803
 20
-381.7257488535642
 10
1088.2825141262
 20
-381.6611422947962
 10
1088.462915653912
 20
-381.5966884828835
 10
1088.643380098265
 20
-381.532414048726
 10
1088.823916789584
 20
-381.4683456232232
 10
1089.004535058196
 20
-381.4045098372749
 10
1089.185244234425
 20
-381.3409333217807
 10
1089.366053648598
 20
-381.2776427076403
 10
1089.546972631039
 20
-381.2146646257533
 10
1089.728010512074
 20
-381.1520257070194
 10
1089.9099522499
 20
-381.0894187930775
 10
1090.091979636132
 20
-381.0270617086391
 10
1090.274088862295
 20
-380.9649437068414
 10
1090.456276119909
 20
-380.9030540408219
 10
1090.638537600499
 20
-380.8413819637178
 10
1090.820869495588
 20
-380.7799167286664
 10
1091.003267996697
 20
-380.7186475888053
 10
1091.18572929535
 20
-380.6575637972716
 10
1091.36824958307
 20
-380.5966546072026
 10
1091.55082505138
 20
-380.5359092717358
 10
1091.733451891802
 20
-380.4753170440086
 10
1091.916126295859
 20
-380.4148671771582
 10
1092.098844455075
 20
-380.3545489243219
 10
1092.281602560971
 20
-380.2943515386372
 10
1092.464396805071
 20
-380.2342642732414
 10
1092.647223378898
 20
-380.1742763812717
 10
1092.830078473974
 20
-380.1143771158656
 10
1093.012958281823
 20
-380.0545557301603
 10
1093.195858993966
 20
-379.9948014772932
 10
1093.378776801928
 20
-379.9351036104017
 10
1093.605325588475
 20
-379.8611234480214
 10
1093.831842175948
 20
-379.7870312530206
 10
1094.058338951749
 20
-379.7128675323934
 10
1094.284828303277
 20
-379.6386727931347
 10
1094.511322617933
 20
-379.5644875422387
 10
1094.737834283119
 20
-379.4903522866999
 10
1094.964375686236
 20
-379.416307533513
 10
1095.190959214683
 20
-379.3423937896723
 10
1095.417597255863
 20
-379.2686515621722
 10
1095.644302197175
 20
-379.1951213580074
 10
1095.871086426021
 20
-379.1218436841723
 10
1096.097962329802
 20
-379.0488590476614
 10
1096.324942295917
 20
-378.9762079554692
 10
1096.55203871177
 20
-378.9039309145901
 10
1096.779263964759
 20
-378.8320684320186
 10
1097.006630442286
 20
-378.7606610147493
 10
1097.234150531752
 20
-378.6897491697766
 10
1097.461836620558
 20
-378.6193734040949
 10
1097.689701096104
 20
-378.5495742246988
 10
1097.917756345791
 20
-378.4803921385828
 10
1098.046613519705
 20
-378.4417135456326
 10
1098.175592153479
 20
-378.4034225684701
 10
1098.304690473221
 20
-378.3655196845901
 10
1098.433906705036
 20
-378.3280053714878
 10
1098.563239075031
 20
-378.2908801066579
 10
1098.692685809311
 20
-378.2541443675955
 10
1098.822245133984
 20
-378.2177986317957
 10
1098.951915275154
 20
-378.1818433767534
 10
1099.081694458928
 20
-378.1462790799635
 10
1099.211580911412
 20
-378.1111062189211
 10
1099.341572858713
 20
-378.0763252711212
 10
1099.471668526935
 20
-378.0419367140587
 10
1099.601866142187
 20
-378.0079410252287
 10
1099.732163930573
 20
-377.974338682126
 10
1099.8625601182
 20
-377.9411301622458
 10
1099.993052931174
 20
-377.9083159430829
 10
1100.123640595602
 20
-377.8758965021324
 10
1100.254321337588
 20
-377.8438723168892
 10
1100.38509338324
 20
-377.8122438648483
 10
1100.515954958663
 20
-377.7810116235048
  0
ENDBLK
  5
B2
330
AF
100
AcDbEntity
  8
0
100
AcDbBlockEnd
  0
BLOCK
  5
CC
330
CA
100
AcDbEntity
  8
0
100
AcDbBlockBegin
  2
*E5
 70
     1
 71
     0
 10
0.0
 20
0.0
 30
0.0
  3
*E5
  1

  0
LWPOLYLINE
  5
CB
330
CA
100
AcDbEntity
  8
0
  6
Continuous
 62
     7
370
     0
100
AcDbPolyline
 90
      221
 70
   128
 43
0.0
 10
1102.642914144608
 20
-269.5827323751148
 10
1102.780164814062
 20
-269.7259144987664
 10
1102.923911042213
 20
-269.876090917264
 10
1103.07344546231
 20
-270.0324704467864
 10
1103.228060707605
 20
-270.1942619035122
 10
1103.38704941135
 20
-270.3606741036198
 10
1103.549704206795
 20
-270.5309158632879
 10
1103.715317727191
 20
-270.7041959986952
 10
1103.883182605791
 20
-270.8797233260202
 10
1104.052591475844
 20
-271.0567066614415
 10
1104.222836970602
 20
-271.2343548211376
 10
1104.393211723318
 20
-271.4118766212874
 10
1104.563008367242
 20
-271.5884808780693
 10
1104.731519535624
 20
-271.7633764076618
 10
1104.898037861716
 20
-271.9357720262437
 10
1105.061855978771
 20
-272.1048765499936
 10
1105.222266520037
 20
-272.2698987950899
 10
1105.378562118769
 20
-272.4300475777114
 10
1105.530035408214
 20
-272.5845317140366
 10
1105.675979021627
 20
-272.7325600202442
 10
1105.815685592257
 20
-272.8733413125127
 10
1105.982119304198
 20
-273.0407328098358
 10
1106.148325863237
 20
-273.2083859256775
 10
1106.314379384277
 20
-273.3762202022489
 10
1106.480353982226
 20
-273.5441551817614
 10
1106.646323771988
 20
-273.7121104064261
 10
1106.812362868469
 20
-273.8800054184542
 10
1106.978545386576
 20
-274.0477597600571
 10
1107.144945441214
 20
-274.2152929734462
 10
1107.311637147289
 20
-274.3825246008324
 10
1107.478694619705
 20
-274.5493741844272
 10
1107.646191973371
 20
-274.7157612664418
 10
1107.81420332319
 20
-274.8816053890874
 10
1107.982802784068
 20
-275.0468260945754
 10
1108.152064470912
 20
-275.211342925117
 10
1108.322062498627
 20
-275.3750754229234
 10
1108.492870982118
 20
-275.5379431302059
 10
1108.664564036292
 20
-275.6998655891757
 10
1108.837215776054
 20
-275.8607623420442
 10
1109.01090031631
 20
-276.0205529310225
 10
1109.185691771966
 20
-276.1791568983219
 10
1109.383444412671
 20
-276.3562490747161
 10
1109.582192773884
 20
-276.5322070971726
 10
1109.781877086309
 20
-276.7070974106009
 10
1109.982437580649
 20
-276.8809864599105
 10
1110.183814487608
 20
-277.0539406900111
 10
1110.385948037889
 20
-277.2260265458124
 10
1110.588778462195
 20
-277.397310472224
 10
1110.79224599123
 20
-277.5678589141555
 10
1110.996290855697
 20
-277.7377383165162
 10
1111.2008532863
 20
-277.9070151242162
 10
1111.405873513743
 20
-278.0757557821649
 10
1111.611291768729
 20
-278.2440267352718
 10
1111.81704828196
 20
-278.4118944284467
 10
1112.023083284141
 20
-278.579425306599
 10
1112.229337005976
 20
-278.7466858146386
 10
1112.435749678167
 20
-278.9137423974749
 10
1112.642261531418
 20
-279.0806615000176
 10
1112.848812796432
 20
-279.2475095671762
 10
1113.055343703913
 20
-279.4143530438604
 10
1113.261794484565
 20
-279.5812583749799
 10
1113.450418167396
 20
-279.733450395316
 10
1113.639411092406
 20
-279.8851812687773
 10
1113.828752830356
 20
-280.0364761182722
 10
1114.018422952005
 20
-280.1873600667095
 10
1114.208401028113
 20
-280.3378582369976
 10
1114.398666629441
 20
-280.4879957520453
 10
1114.589199326748
 20
-280.6377977347611
 10
1114.779978690793
 20
-280.7872893080539
 10
1114.970984292337
 20
-280.9364955948319
 10
1115.16219570214
 20
-281.0854417180039
 10
1115.353592490962
 20
-281.2341528004787
 10
1115.545154229561
 20
-281.3826539651647
 10
1115.736860488699
 20
-281.5309703349706
 10
1115.928690839136
 20
-281.679127032805
 10
1116.12062485163
 20
-281.8271491815766
 10
1116.312642096942
 20
-281.9750619041939
 10
1116.504722145833
 20
-282.1228903235656
 10
1116.69684456906
 20
-282.2706595626003
 10
1116.888988937386
 20
-282.4183947442065
 10
1117.081134821568
 20
-282.5661209912931
 10
1117.229341678614
 20
-282.6798165979526
 10
1117.377780433492
 20
-282.7932071734919
 10
1117.526430616806
 20
-282.9063196605126
 10
1117.675271759158
 20
-283.019181001617
 10
1117.824283391151
 20
-283.1318181394065
 10
1117.973445043388
 20
-283.2442580164833
 10
1118.122736246472
 20
-283.3565275754492
 10
1118.272136531006
 20
-283.4686537589061
 10
1118.421625427591
 20
-283.5806635094557
 10
1118.571182466832
 20
-283.6925837697
 10
1118.720787179331
 20
-283.804441482241
 10
1118.87041909569
 20
-283.9162635896805
 10
1119.020057746513
 20
-284.0280770346202
 10
1119.169682662402
 20
-284.1399087596621
 10
1119.31927337396
 20
-284.2517857074082
 10
1119.468809411789
 20
-284.3637348204602
 10
1119.618270306494
 20
-284.4757830414201
 10
1119.767635588675
 20
-284.5879573128896
 10
1119.916884788937
 20
-284.7002845774707
 10
1120.065997437882
 20
-284.8127917777653
 10
1120.314049996162
 20
-285.0003960419666
 10
1120.56194006768
 20
-285.1882162731956
 10
1120.809692691643
 20
-285.3762191650696
 10
1121.05733290726
 20
-285.564371411206
 10
1121.304885753738
 20
-285.7526397052222
 10
1121.552376270285
 20
-285.9409907407355
 10
1121.799829496109
 20
-286.1293912113635
 10
1122.047270470418
 20
-286.3178078107235
 10
1122.29472423242
 20
-286.5062072324328
 10
1122.542215821323
 20
-286.6945561701088
 10
1122.789770276335
 20
-286.8828213173691
 10
1123.037412636663
 20
-287.070969367831
 10
1123.285167941516
 20
-287.2589670151118
 10
1123.533061230101
 20
-287.4467809528289
 10
1123.781117541627
 20
-287.6343778745997
 10
1124.029361915301
 20
-287.8217244740418
 10
1124.277819390331
 20
-288.0087874447723
 10
1124.526515005925
 20
-288.1955334804088
 10
1124.775473801291
 20
-288.3819292745686
 10
1125.024720815637
 20
-288.5679415208691
 10
1125.219217273289
 20
-288.7125081808696
 10
1125.414017005946
 20
-288.856663111675
 10
1125.609092009067
 20
-289.0004443630881
 10
1125.804414278111
 20
-289.143889984912
 10
1125.999955808539
 20
-289.2870380269492
 10
1126.19568859581
 20
-289.4299265390027
 10
1126.391584635383
 20
-289.5725935708755
 10
1126.587615922719
 20
-289.7150771723704
 10
1126.783754453276
 20
-289.8574153932901
 10
1126.979972222514
 20
-289.9996462834375
 10
1127.176241225894
 20
-290.1418078926157
 10
1127.372533458874
 20
-290.2839382706273
 10
1127.568820916914
 20
-290.4260754672753
 10
1127.765075595474
 20
-290.5682575323625
 10
1127.961269490013
 20
-290.7105225156917
 10
1128.157374595992
 20
-290.8529084670659
 10
1128.353362908869
 20
-290.9954534362879
 10
1128.549206424105
 20
-291.1381954731605
 10
1128.744877137158
 20
-291.2811726274867
 10
1128.940347043489
 20
-291.4244229490692
 10
1129.284859556893
 20
-291.6775815551225
 10
1129.629131385926
 20
-291.9310688589961
 10
1129.97319754897
 20
-292.1848369942076
 10
1130.317093064411
 20
-292.4388380942748
 10
1130.660852950631
 20
-292.6930242927153
 10
1131.004512226014
 20
-292.9473477230469
 10
1131.348105908942
 20
-293.2017605187873
 10
1131.691669017801
 20
-293.4562148134542
 10
1132.035236570973
 20
-293.7106627405652
 10
1132.378843586841
 20
-293.965056433638
 10
1132.722525083791
 20
-294.2193480261905
 10
1133.066316080203
 20
-294.4734896517402
 10
1133.410251594463
 20
-294.7274334438048
 10
1133.754366644954
 20
-294.9811315359021
 10
1134.098696250059
 20
-295.2345360615498
 10
1134.443275428162
 20
-295.4875991542655
 10
1134.788139197646
 20
-295.740272947567
 10
1135.133322576895
 20
-295.9925095749719
 10
1135.478860584292
 20
-296.244261169998
 10
1135.824788238221
 20
-296.495479866163
 10
1136.111824164609
 20
-296.7034306091147
 10
1136.399002395827
 20
-296.9111896949135
 10
1136.686331174861
 20
-297.1187444902343
 10
1136.9738187447
 20
-297.3260823617522
 10
1137.26147334833
 20
-297.5331906761423
 10
1137.549303228739
 20
-297.7400568000797
 10
1137.837316628914
 20
-297.9466681002394
 10
1138.125521791842
 20
-298.1530119432967
 10
1138.413926960511
 20
-298.3590756959263
 10
1138.702540377908
 20
-298.5648467248036
 10
1138.991370287022
 20
-298.7703123966036
 10
1139.280424930837
 20
-298.9754600780014
 10
1139.569712552343
 20
-299.1802771356719
 10
1139.859241394527
 20
-299.3847509362905
 10
1140.149019700376
 20
-299.588868846532
 10
1140.439055712877
 20
-299.7926182330716
 10
1140.729357675017
 20
-299.9959864625843
 10
1141.019933829784
 20
-300.1989609017453
 10
1141.310792420166
 20
-300.4015289172296
 10
1141.601941689149
 20
-300.6036778757123
 10
1141.914958694942
 20
-300.8205039089243
 10
1142.228144199055
 20
-301.0370956134554
 10
1142.541510807675
 20
-301.2534325299002
 10
1142.855071126986
 20
-301.4694941988534
 10
1143.168837763172
 20
-301.6852601609095
 10
1143.48282332242
 20
-301.9007099566631
 10
1143.797040410913
 20
-302.1158231267089
 10
1144.111501634838
 20
-302.3305792116415
 10
1144.426219600378
 20
-302.5449577520554
 10
1144.741206913719
 20
-302.7589382885452
 10
1145.056476181046
 20
-302.9725003617058
 10
1145.372040008544
 20
-303.1856235121314
 10
1145.687911002397
 20
-303.3982872804169
 10
1146.004101768792
 20
-303.6104712071568
 10
1146.320624913912
 20
-303.8221548329458
 10
1146.637493043942
 20
-304.0333176983783
 10
1146.954718765069
 20
-304.2439393440491
 10
1147.272314683476
 20
-304.4539993105527
 10
1147.590293405349
 20
-304.6634771384838
 10
1147.908667536873
 20
-304.8723523684369
 10
1148.24753706628
 20
-305.0922693850869
 10
1148.646600459682
 20
-305.3479342015467
 10
1149.099209252365
 20
-305.635311635813
 10
1149.598714979619
 20
-305.9503665058825
 10
1150.13846917673
 20
-306.2890636297519
 10
1150.711823378987
 20
-306.6473678254179
 10
1151.312129121679
 20
-307.0212439108772
 10
1151.932737940093
 20
-307.4066567041265
 10
1152.567001369516
 20
-307.7995710231623
 10
1153.208270945238
 20
-308.1959516859816
 10
1153.849898202546
 20
-308.5917635105811
 10
1154.485234676727
 20
-308.9829713149574
 10
1155.107631903071
 20
-309.365539917107
 10
1155.710441416866
 20
-309.7354341350269
 10
1156.287014753398
 20
-310.0886187867137
 10
1156.830703447957
 20
-310.421058690164
 10
1157.334859035829
 20
-310.7287186633747
 10
1157.792833052304
 20
-311.0075635243422
 10
1158.19797703267
 20
-311.2535580910635
 10
1158.543642512213
 20
-311.4626671815352
  0
ENDBLK
  5
CD
330
CA
100
AcDbEntity
  8
0
100
AcDbBlockEnd
  0
ENDSEC
  0
SECTION
  2
ENTITIES
  0
LWPOLYLINE
  5
39
330
1F
100
AcDbEntity
  8
0
  6
Continuous
 62
     5
420
      255
370
     0
100
AcDbPolyline
 90
        4
 70
   128
 43
0.0
 10
1001.033526514312
 20
-297.4537181544122
 10
1015.237591935484
 20
-297.4537181544122
 10
1010.123703110946
 20
-299.0476235050886
 10
1031.174638390826
 20
-299.0476235050886
1001
TCAD
1000
TCW_CUSTOM_DATA
1002
{
1000
#$AUX@_ToolInfo Properties
1070
     8
1000
CMD_POLYLINE@
1002
}
  0
LWPOLYLINE
  5
3A
330
1F
100
AcDbEntity
  8
0
  6
Continuous
 62
     5
420
      255
370
     0
100
AcDbPolyline
 90
        3
 70
   128
 43
0.0
 10
1001.022894727321
 20
-298.2506708297503
 10
1010.67655595668
 20
-298.2506708297503
 10
1008.209981721866
 20
-299.0918986537185
1001
TCAD
1000
TCW_CUSTOM_DATA
1002
{
1000
#$AUX@_ToolInfo Properties
1070
     8
1000
CMD_POLYLINE@
1002
}
  0
LWPOLYLINE
  5
3B
330
1F
100
AcDbEntity
  8
0
  6
Continuous
 62
     5
420
      255
370
     0
100
AcDbPolyline
 90
        3
 70
   128
 43
0.0
 10
1030.83442125499
 20
-297.4094430057822
 10
1017.43837153143
 20
-297.4094430057822
 10
1013.313238759413
 20
-298.7819726133091
1001
TCAD
1000
TCW_CUSTOM_DATA
1002
{
1000
#$AUX@_ToolInfo Properties
1070
     8
1000
CMD_POLYLINE@
1002
}
  0
LINE
  5
3C
330
1F
100
AcDbEntity
  8
0
  6
Continuous
 62
     5
420
      255
370
     0
100
AcDbLine
 10
1008.246614917135
 20
-299.0727347875478
 30
0.0
 11
1001.111848094419
 21
-299.0727347875478
 31
0.0
1001
TCAD
1000
TCW_CUSTOM_DATA
1002
{
1000
#$AUX@_ToolInfo Properties
1070
     8
1000
CMD_LINE@
1002
}
  0
TEXT
  5
3D
330
1F
100
AcDbEntity
  8
0
  6
Continuous
 62
     5
420
      255
100
AcDbText
 10
1030.57059924699
 20
-309.6048113119032
 30
0.0
 40
5.776946067810059
  1
1.
  7
_TCW_TXTSTY_1
 11
1030.57059924699
 21
-303.8278652440931
 31
0.0
100
AcDbText
 73
     3
1001
TCAD
1000
TCW40_TEXT
1002
{
1000
Times New Roman
1070
     0
1070
   257
1002
}
1000
TCW_CUSTOM_DATA
1002
{
1000
#$AUX@_ToolInfo Properties
1070
     8
1000
CMD_TEXT@
1002
}
  0
ELLIPSE
  5
3E
330
1F
100
AcDbEntity
  8
0
  6
Continuous
 62
     5
420
      255
370
     0
100
AcDbEllipse
 10
1034.095033261381
 20
-306.4815028901467
 30
0.0
 11
0.0
 21
-5.862654945854274
 31
0.0
210
0.0
220
0.0
230
1.0
 40
0.9605194628490672
 41
0.0
 42
6.283185307179586
1001
TCAD
1000
TCW_CUSTOM_DATA
1002
{
1000
#$AUX@_ToolInfo Properties
1070
     8
1000
CMD_CENTERPTCIRCLE@
1002
}
  0
LINE
  5
3F
330
1F
100
AcDbEntity
  8
0
  6
Continuous
 62
     7
370
     0
100
AcDbLine
 10
902.4386840209919
 20
-323.3917531410988
 30
0.0
 11
1054.401909102897
 21
-323.3917531410988
 31
0.0
1001
TCAD
1000
TCW_CUSTOM_DATA
1002
{
1000
#$AUX@_ToolInfo Properties
1070
     8
1000
CMD_LINE@
1002
}
  0
LINE
  5
40
330
1F
100
AcDbEntity
  8
0
  6
Continuous
 62
     7
370
     0
100
AcDbLine
 10
902.4386841159777
 20
-359.3803251943688
 30
0.0
 11
1054.403297781196
 21
-359.3803251943689
 31
0.0
1001
TCAD
1000
TCW_CUSTOM_DATA
1002
{
1000
#$AUX@_ToolInfo Properties
1070
     8
1000
CMD_LINE@
1002
}
  0
LINE
  5
41
330
1F
100
AcDbEntity
  8
0
  6
Continuous
 62
     7
370
     0
100
AcDbLine
 10
1054.438668915866
 20
-323.3896140008446
 30
0.0
 11
1054.438668915866
 21
-359.3726983106994
 31
0.0
1001
TCAD
1000
TCW_CUSTOM_DATA
1002
{
1000
#$AUX@_ToolInfo Properties
1070
     8
1000
CMD_LINE@
1002
}
  0
LINE
  5
42
330
1F
100
AcDbEntity
  8
0
  6
Continuous
 62
     7
370
     0
100
AcDbLine
 10
902.4386838135158
 20
-359.3786120392698
 30
0.0
 11
902.4386838135158
 21
-323.3917512797926
 31
0.0
1001
TCAD
1000
TCW_CUSTOM_DATA
1002
{
1000
#$AUX@_ToolInfo Properties
1070
     8
1000
CMD_LINE@
1002
}
  0
TEXT
  5
44
330
1F
100
AcDbEntity
  8
0
  6
Continuous
 62
     5
420
      255
100
AcDbText
 10
1043.550165160066
 20
-355.317067458298
 30
0.0
 40
5.776946067810059
  1
2.
  7
_TCW_TXTSTY_2
 11
1043.550165160066
 21
-349.5401213904879
 31
0.0
100
AcDbText
 73
     3
1001
TCAD
1000
TCW40_TEXT
1002
{
1000
Times New Roman
1070
     0
1070
   257
1002
}
1000
TCW_CUSTOM_DATA
1002
{
1000
#$AUX@_ToolInfo Properties
1070
     8
1000
CMD_TEXT@
1002
}
  0
CIRCLE
  5
45
330
1F
100
AcDbEntity
  8
0
  6
Continuous
 62
     5
420
      255
370
     0
100
AcDbCircle
 10
1047.219465107343
 20
-352.1937590365416
 30
0.0
 40
5.862654945854217
1001
TCAD
1000
TCW_CUSTOM_DATA
1002
{
1000
#$AUX@_ToolInfo Properties
1070
     8
1000
CMD_CENTERPTCIRCLE@
1002
}
  0
LWPOLYLINE
  5
46
330
1F
100
AcDbEntity
  8
0
  6
Continuous
 62
     5
420
      255
370
     0
100
AcDbPolyline
 90
        4
 70
   128
 43
0.0
 10
1016.589535491828
 20
-338.1841548958301
 10
1031.377435134215
 20
-338.1841548958301
 10
1026.053348509912
 20
-339.7780602465066
 10
1047.969547081713
 20
-339.7780602465066
1001
TCAD
1000
TCW_CUSTOM_DATA
1002
{
1000
#$AUX@_ToolInfo Properties
1070
     8
1000
CMD_POLYLINE@
1002
}
  0
LWPOLYLINE
  5
47
330
1F
100
AcDbEntity
  8
0
  6
Continuous
 62
     5
420
      255
370
     0
100
AcDbPolyline
 90
        3
 70
   128
 43
0.0
 10
1016.578466703113
 20
-338.9811075711683
 10
1026.628925442101
 20
-338.9811075711683
 10
1024.060966821566
 20
-339.8223353951365
1001
TCAD
1000
TCW_CUSTOM_DATA
1002
{
1000
#$AUX@_ToolInfo Properties
1070
     8
1000
CMD_POLYLINE@
1002
}
  0
LWPOLYLINE
  5
48
330
1F
100
AcDbEntity
  8
0
  6
Continuous
 62
     5
420
      255
370
     0
100
AcDbPolyline
 90
        3
 70
   128
 43
0.0
 10
1047.615345892674
 20
-338.1398797472002
 10
1033.668674074255
 20
-338.1398797472002
 10
1029.373984657155
 20
-339.5124093547271
1001
TCAD
1000
TCW_CUSTOM_DATA
1002
{
1000
#$AUX@_ToolInfo Properties
1070
     8
1000
CMD_POLYLINE@
1002
}
  0
LINE
  5
49
330
1F
100
AcDbEntity
  8
0
  6
Continuous
 62
     5
420
      255
370
     0
100
AcDbLine
 10
1024.099105762719
 20
-339.8031715289658
 30
0.0
 11
1016.671076348767
 21
-339.8031715289658
 31
0.0
1001
TCAD
1000
TCW_CUSTOM_DATA
1002
{
1000
#$AUX@_ToolInfo Properties
1070
     8
1000
CMD_LINE@
1002
}
  0
LINE
  5
4A
330
1F
100
AcDbEntity
  8
0
  6
Continuous
 62
     7
370
     0
100
AcDbLine
 10
1040.431847475133
 20
-220.1390472791669
 30
0.0
 11
900.4568393392773
 21
-220.1390472791669
 31
0.0
1001
TCAD
1000
TCW_CUSTOM_DATA
1002
{
1000
#$AUX@_ToolInfo Properties
1070
     8
1000
CMD_LINE@
1002
}
  0
LINE
  5
4B
330
1F
100
AcDbEntity
  8
0
  6
Continuous
 62
     7
370
     0
100
AcDbLine
 10
1043.449003803915
 20
-287.5699867363206
 30
0.0
 11
897.417598552238
 21
-287.5699867363206
 31
0.0
1001
TCAD
1000
TCW_CUSTOM_DATA
1002
{
1000
#$AUX@_ToolInfo Properties
1070
     8
1000
CMD_LINE@
1002
}
  0
LINE
  5
4C
330
1F
100
AcDbEntity
  8
0
  6
Continuous
 62
     7
370
     0
100
AcDbLine
 10
897.454077487197
 20
-225.132887718506
 30
0.0
 11
897.454077487197
 21
-287.57890815217
 31
0.0
1001
TCAD
1000
TCW_CUSTOM_DATA
1002
{
1000
#$AUX@_ToolInfo Properties
1070
     8
1000
CMD_LINE@
1002
}
  0
LINE
  5
4D
330
1F
100
AcDbEntity
  8
0
  6
Continuous
 62
     7
370
     0
100
AcDbLine
 10
1043.454074223143
 20
-225.1218702853461
 30
0.0
 11
1043.454074223143
 21
-287.5581379686345
 31
0.0
1001
TCAD
1000
TCW_CUSTOM_DATA
1002
{
1000
#$AUX@_ToolInfo Properties
1070
     8
1000
CMD_LINE@
1002
}
  0
LWPOLYLINE
  5
4E
330
1F
100
AcDbEntity
  8
0
  6
Continuous
 62
     5
420
      255
370
     0
100
AcDbPolyline
 90
        4
 70
   128
 43
0.0
 10
1005.413210049706
 20
-266.2569238782578
 10
1020.201109692092
 20
-266.2569238782578
 10
1014.877023067789
 20
-267.8508292289342
 10
1036.793221639591
 20
-267.8508292289342
1001
TCAD
1000
TCW_CUSTOM_DATA
1002
{
1000
#$AUX@_ToolInfo Properties
1070
     8
1000
CMD_POLYLINE@
1002
}
  0
LWPOLYLINE
  5
4F
330
1F
100
AcDbEntity
  8
0
  6
Continuous
 62
     5
420
      255
370
     0
100
AcDbPolyline
 90
        3
 70
   128
 43
0.0
 10
1005.402141260991
 20
-267.053876553596
 10
1015.452599999978
 20
-267.053876553596
 10
1012.884641379444
 20
-267.8951043775642
1001
TCAD
1000
TCW_CUSTOM_DATA
1002
{
1000
#$AUX@_ToolInfo Properties
1070
     8
1000
CMD_POLYLINE@
1002
}
  0
LWPOLYLINE
  5
50
330
1F
100
AcDbEntity
  8
0
  6
Continuous
 62
     5
420
      255
370
     0
100
AcDbPolyline
 90
        3
 70
   128
 43
0.0
 10
1036.439020450551
 20
-266.2126487296279
 10
1022.492348632133
 20
-266.2126487296279
 10
1018.197659215032
 20
-267.5851783371547
1001
TCAD
1000
TCW_CUSTOM_DATA
1002
{
1000
#$AUX@_ToolInfo Properties
1070
     8
1000
CMD_POLYLINE@
1002
}
  0
LINE
  5
51
330
1F
100
AcDbEntity
  8
0
  6
Continuous
 62
     5
420
      255
370
     0
100
AcDbLine
 10
1012.922780320596
 20
-267.8759405113934
 30
0.0
 11
1005.494750906644
 21
-267.8759405113934
 31
0.0
1001
TCAD
1000
TCW_CUSTOM_DATA
1002
{
1000
#$AUX@_ToolInfo Properties
1070
     8
1000
CMD_LINE@
1002
}
  0
LINE
  5
52
330
1F
100
AcDbEntity
  8
0
  6
Continuous
 62
     7
370
     0
100
AcDbLine
 10
897.454845447223
 20
-225.1328877184665
 30
0.0
 11
900.4528030449684
 21
-225.1328877184665
 31
0.0
1001
TCAD
1000
TCW_CUSTOM_DATA
1002
{
1000
#$AUX@_ToolInfo Properties
1070
     8
1000
CMD_LINE@
1002
}
  0
LINE
  5
53
330
1F
100
AcDbEntity
  8
0
  6
Continuous
 62
     7
370
     0
100
AcDbLine
 10
900.4528030449684
 20
-225.1328877184665
 30
0.0
 11
900.4528030449684
 21
-220.1399916587681
 31
0.0
1001
TCAD
1000
TCW_CUSTOM_DATA
1002
{
1000
#$AUX@_ToolInfo Properties
1070
     8
1000
CMD_LINE@
1002
}
  0
LINE
  5
54
330
1F
100
AcDbEntity
  8
0
  6
Continuous
 62
     7
370
     0
100
AcDbLine
 10
1043.453662453801
 20
-225.1339173865861
 30
0.0
 11
1040.45393382872
 21
-225.1339173865861
 31
0.0
1001
TCAD
1000
TCW_CUSTOM_DATA
1002
{
1000
#$AUX@_ToolInfo Properties
1070
     8
1000
CMD_LINE@
1002
}
  0
LINE
  5
55
330
1F
100
AcDbEntity
  8
0
  6
Continuous
 62
     7
370
     0
100
AcDbLine
 10
1040.45393382872
 20
-225.1359252370715
 30
0.0
 11
1040.45393382872
 21
-220.1383853791813
 31
0.0
1001
TCAD
1000
TCW_CUSTOM_DATA
1002
{
1000
#$AUX@_ToolInfo Properties
1070
     8
1000
CMD_LINE@
1002
}
  0
TEXT
  5
57
330
1F
100
AcDbEntity
  8
0
  6
Continuous
 62
     5
420
      255
100
AcDbText
 10
1027.124865218429
 20
-281.3488083711484
 30
0.0
 40
5.776946067810059
  1
3.
  7
_TCW_TXTSTY_3
 11
1027.124865218429
 21
-275.5718623033383
 31
0.0
100
AcDbText
 73
     3
1001
TCAD
1000
TCW40_TEXT
1002
{
1000
Times New Roman
1070
     0
1070
   257
1002
}
1000
TCW_CUSTOM_DATA
1002
{
1000
#$AUX@_ToolInfo Properties
1070
     8
1000
CMD_TEXT@
1002
}
  0
CIRCLE
  5
58
330
1F
100
AcDbEntity
  8
0
  6
Continuous
 62
     5
420
      255
370
     0
100
AcDbCircle
 10
1030.794165165706
 20
-278.225499949392
 30
0.0
 40
5.86265494585416
1001
TCAD
1000
TCW_CUSTOM_DATA
1002
{
1000
#$AUX@_ToolInfo Properties
1070
     8
1000
CMD_CENTERPTCIRCLE@
1002
}
  0
INSERT
  5
5D
330
1F
100
AcDbEntity
  8
0
  6
Continuous
 62
     7
100
AcDbBlockReference
  2
*E1
 10
0.0
 20
0.0
 30
0.0
1001
TCAD
1000
TC25ExternalObject
1002
{
1000
TCW30CURVE
1000

1070
     0
1071
        0
1040
1.0
1040
0.0
1000
Continuous
1000
0
1071
       34
1071
      162
1010
1053.73266700955
1020
-235.7232170765502
1030
0.0
1071
     6274
1010
1055.45656124571
1020
-236.0763469685979
1030
0.0
1071
     6274
1010
1056.199630424325
1020
-236.1166930311888
1030
0.0
1071
      130
1010
1057.93876958313
1020
-236.3848479200779
1030
0.0
1071
     6274
1010
1059.807915043941
1020
-236.6730482580578
1030
0.0
1071
     6274
1010
1061.680712540792
1020
-236.9379582318821
1030
0.0
1071
      130
1010
1063.555446549311
1020
-237.187230343818
1030
0.0
1071
     6274
1010
1065.543018290262
1020
-237.4515058107589
1030
0.0
1071
     6274
1010
1067.528960778515
1020
-237.7372079933363
1030
0.0
1071
      130
1010
1069.525171781937
1020
-237.9254221736589
1030
0.0
1071
     6274
1010
1071.27521183485
1020
-238.0904259500765
1030
0.0
1071
     6274
1010
1073.032027971587
1020
-238.1862354653832
1030
0.0
1071
      130
1010
1074.788800481672
1020
-238.2463751431549
1030
0.0
1071
     6274
1010
1077.095858958056
1020
-238.3253527868588
1030
0.0
1071
     6274
1010
1079.40495089381
1020
-238.3426610340038
1030
0.0
1071
      130
1010
1081.713360797112
1020
-238.3426610340038
1030
0.0
1071
     6274
1010
1083.607255291649
1020
-238.3426610340038
1030
0.0
1071
     6274
1010
1085.5013525082
1020
-238.3084829264207
1030
0.0
1071
      130
1010
1087.394228357192
1020
-238.2463751431549
1030
0.0
1071
     6274
1010
1089.088505468586
1020
-238.1907836495646
1030
0.0
1071
     6274
1010
1090.781606566979
1020
-238.0982768718134
1030
0.0
1071
      130
1010
1092.473309098987
1020
-237.9896127675582
1030
0.0
1071
     6274
1010
1094.44611175453
1020
-237.8628925969721
1030
0.0
1071
     6274
1010
1096.418637696569
1020
-237.7248849976079
1030
0.0
1071
      130
1010
1098.386867561473
1020
-237.5402786102637
1030
0.0
1071
     6274
1010
1100.297444020122
1020
-237.361079714817
1030
0.0
1071
     6274
1010
1102.204603519827
1020
-237.1434264123784
1030
0.0
1071
      130
1010
1104.107854242261
1020
-236.8983726712716
1030
0.0
1071
     6274
1010
1105.944221512533
1020
-236.661930533448
1030
0.0
1071
     6274
1010
1107.771587975225
1020
-236.3601467692397
1030
0.0
1071
      130
1010
1109.604173844401
1020
-236.0959902475315
1030
0.0
1071
     6274
1010
1112.818578098565
1020
-235.6326526973378
1030
0.0
1071
     6274
1010
1116.938375100861
1020
-235.0896295314999
1030
0.0
1071
      162
1010
1120.14475198169
1020
-234.5736608379825
1030
0.0
1070
     3
1071
-2147483635
1000
$SPLINESEGS
1070
    18
1070
    20
1000
$SPLFRAME
1070
    18
1070
     0
1000
$SPLINETYPE
1070
    18
1070
     1
1000
$SHOWCONTRPTS
1070
    18
1070
     1
1000
$CURVESMOOTH
1070
    18
1070
     1
1000
DEGREE
1070
    19
1071
        3
1000
RATIONAL
1070
    17
1070
 16640
1000
SPLINECLOSED
1070
    17
1070
 20480
1000
NPOINTS
1070
     3
1071
        0
1000
NKNOTS
1070
     3
1071
        0
1000
WEIGHTS
1070
  8204
1070
    12
1070
     8
1004
0000000000000000
1070
    16
1000
KNOTS
1070
  8204
1070
    12
1070
     8
1004
0000000000000000
1070
    16
1000
REALDEGREE
1070
    19
1071
        3
1002
}
1000
TCW_CUSTOM_DATA
1002
{
1000
#$AUX@_ToolInfo Properties
1070
     8
1000
CMD_BEZIER@
1002
}
  0
LINE
  5
5E
330
1F
100
AcDbEntity
  8
0
  6
Continuous
 62
     7
370
     0
100
AcDbLine
 10
1053.710682799582
 20
-231.4827442956576
 30
0.0
 11
1120.114815419229
 21
-231.4827442956576
 31
0.0
1001
TCAD
1000
TCW_CUSTOM_DATA
1002
{
1000
#$AUX@_ToolInfo Properties
1070
     8
1000
CMD_LINE@
1002
}
  0
LINE
  5
5F
330
1F
100
AcDbEntity
  8
0
  6
Continuous
 62
     7
370
     0
100
AcDbLine
 10
1053.732713627147
 20
-231.481202050565
 30
0.0
 11
1053.732713627147
 21
-235.7382189729466
 31
0.0
1001
TCAD
1000
TCW_CUSTOM_DATA
1002
{
1000
#$AUX@_ToolInfo Properties
1070
     8
1000
CMD_LINE@
1002
}
  0
LINE
  5
60
330
1F
100
AcDbEntity
  8
0
  6
Continuous
 62
     7
370
     0
100
AcDbLine
 10
1120.144071549607
 20
-234.5754364670592
 30
0.0
 11
1120.144071549607
 21
-231.4824834166035
 31
0.0
1001
TCAD
1000
TCW_CUSTOM_DATA
1002
{
1000
#$AUX@_ToolInfo Properties
1070
     8
1000
CMD_LINE@
1002
}
  0
INSERT
  5
65
330
1F
100
AcDbEntity
  8
0
  6
Continuous
 62
     7
100
AcDbBlockReference
  2
*E2
 10
0.0
 20
0.0
 30
0.0
1001
TCAD
1000
TC25ExternalObject
1002
{
1000
TCW30CURVE
1000

1070
     0
1071
        0
1040
1.0
1040
0.0
1000
Continuous
1000
0
1071
       34
1071
      162
1010
1053.7740134574
1020
-224.3130774278577
1030
0.0
1071
     6274
1010
1055.497907693561
1020
-223.9599475358101
1030
0.0
1071
     6274
1010
1056.240976872175
1020
-223.9196014732192
1030
0.0
1071
      130
1010
1057.98011603098
1020
-223.65144658433
1030
0.0
1071
     6274
1010
1059.849261491792
1020
-223.3632462463502
1030
0.0
1071
     6274
1010
1061.722058988643
1020
-223.0983362725259
1030
0.0
1071
      130
1010
1063.596792997161
1020
-222.84906416059
1030
0.0
1071
     6274
1010
1065.584364738112
1020
-222.5847886936491
1030
0.0
1071
     6274
1010
1067.570307226366
1020
-222.2990865110716
1030
0.0
1071
      130
1010
1069.566518229787
1020
-222.1108723307491
1030
0.0
1071
     6274
1010
1071.316558282701
1020
-221.9458685543315
1030
0.0
1071
     6274
1010
1073.073374419437
1020
-221.8500590390247
1030
0.0
1071
      130
1010
1074.830146929522
1020
-221.789919361253
1030
0.0
1071
     6274
1010
1077.137205405906
1020
-221.7109417175492
1030
0.0
1071
     6274
1010
1079.446297341661
1020
-221.6936334704042
1030
0.0
1071
      130
1010
1081.754707244962
1020
-221.6936334704042
1030
0.0
1071
     6274
1010
1083.648601739499
1020
-221.6936334704042
1030
0.0
1071
     6274
1010
1085.54269895605
1020
-221.7278115779873
1030
0.0
1071
      130
1010
1087.435574805042
1020
-221.789919361253
1030
0.0
1071
     6274
1010
1089.129851916437
1020
-221.8455108548434
1030
0.0
1071
     6274
1010
1090.82295301483
1020
-221.9380176325946
1030
0.0
1071
      130
1010
1092.514655546838
1020
-222.0466817368498
1030
0.0
1071
     6274
1010
1094.487458202381
1020
-222.1734019074359
1030
0.0
1071
     6274
1010
1096.459984144419
1020
-222.3114095068001
1030
0.0
1071
      130
1010
1098.428214009323
1020
-222.4960158941443
1030
0.0
1071
     6274
1010
1100.338790467973
1020
-222.675214789591
1030
0.0
1071
     6274
1010
1102.245949967678
1020
-222.8928680920296
1030
0.0
1071
      130
1010
1104.149200690111
1020
-223.1379218331364
1030
0.0
1071
     6274
1010
1105.985567960384
1020
-223.3743639709599
1030
0.0
1071
     6274
1010
1107.812934423075
1020
-223.6761477351683
1030
0.0
1071
      130
1010
1109.645520292252
1020
-223.9403042568765
1030
0.0
1071
     6274
1010
1112.859924546416
1020
-224.4036418070702
1030
0.0
1071
     6274
1010
1116.979721548711
1020
-224.9466649729081
1030
0.0
1071
      162
1010
1120.186098429541
1020
-225.4626336664254
1030
0.0
1070
     3
1071
-2147483635
1000
$SPLINESEGS
1070
    18
1070
    20
1000
$SPLFRAME
1070
    18
1070
     0
1000
$SPLINETYPE
1070
    18
1070
     1
1000
$SHOWCONTRPTS
1070
    18
1070
     1
1000
$CURVESMOOTH
1070
    18
1070
     1
1000
DEGREE
1070
    19
1071
        3
1000
RATIONAL
1070
    17
1070
 16640
1000
SPLINECLOSED
1070
    17
1070
 20480
1000
NPOINTS
1070
     3
1071
        0
1000
NKNOTS
1070
     3
1071
        0
1000
WEIGHTS
1070
  8204
1070
    12
1070
     8
1004
0000000000000000
1070
    16
1000
KNOTS
1070
  8204
1070
    12
1070
     8
1004
0000000000000000
1070
    16
1000
REALDEGREE
1070
    19
1071
        3
1002
}
1000
TCW_CUSTOM_DATA
1002
{
1000
#$AUX@_ToolInfo Properties
1070
     8
1000
CMD_BEZIER@
1002
}
  0
LINE
  5
66
330
1F
100
AcDbEntity
  8
0
  6
Continuous
 62
     7
370
     0
100
AcDbLine
 10
1053.786588379304
 20
-228.5535502087504
 30
0.0
 11
1120.156161867079
 21
-228.5535502087504
 31
0.0
1001
TCAD
1000
TCW_CUSTOM_DATA
1002
{
1000
#$AUX@_ToolInfo Properties
1070
     8
1000
CMD_LINE@
1002
}
  0
LINE
  5
67
330
1F
100
AcDbEntity
  8
0
  6
Continuous
 62
     7
370
     0
100
AcDbLine
 10
1053.774060074998
 20
-228.5550924538429
 30
0.0
 11
1053.774060074998
 21
-224.2980755314614
 31
0.0
1001
TCAD
1000
TCW_CUSTOM_DATA
1002
{
1000
#$AUX@_ToolInfo Properties
1070
     8
1000
CMD_LINE@
1002
}
  0
LINE
  5
68
330
1F
100
AcDbEntity
  8
0
  6
Continuous
 62
     7
370
     0
100
AcDbLine
 10
1120.185417997458
 20
-225.4608580373487
 30
0.0
 11
1120.185417997458
 21
-228.5538110878045
 31
0.0
1001
TCAD
1000
TCW_CUSTOM_DATA
1002
{
1000
#$AUX@_ToolInfo Properties
1070
     8
1000
CMD_LINE@
1002
}
  0
LWPOLYLINE
  5
69
330
1F
100
AcDbEntity
  8
0
  6
Continuous
 62
     5
420
      255
370
     0
100
AcDbPolyline
 90
        4
 70
   128
 43
0.0
 10
1085.150031314535
 20
-232.5281322091714
 10
1099.937930956922
 20
-232.5281322091714
 10
1094.613844332619
 20
-234.1220375598479
 10
1116.53004290442
 20
-234.1220375598479
1001
TCAD
1000
TCW_CUSTOM_DATA
1002
{
1000
#$AUX@_ToolInfo Properties
1070
     8
1000
CMD_POLYLINE@
1002
}
  0
LWPOLYLINE
  5
6A
330
1F
100
AcDbEntity
  8
0
  6
Continuous
 62
     5
420
      255
370
     0
100
AcDbPolyline
 90
        3
 70
   128
 43
0.0
 10
1085.13896252582
 20
-233.3250848845096
 10
1095.189421264808
 20
-233.3250848845096
 10
1092.621462644273
 20
-234.1663127084778
1001
TCAD
1000
TCW_CUSTOM_DATA
1002
{
1000
#$AUX@_ToolInfo Properties
1070
     8
1000
CMD_POLYLINE@
1002
}
  0
LWPOLYLINE
  5
6B
330
1F
100
AcDbEntity
  8
0
  6
Continuous
 62
     5
420
      255
370
     0
100
AcDbPolyline
 90
        3
 70
   128
 43
0.0
 10
1116.175841715381
 20
-232.4838570605415
 10
1102.229169896962
 20
-232.4838570605415
 10
1097.934480479861
 20
-233.8563866680684
1001
TCAD
1000
TCW_CUSTOM_DATA
1002
{
1000
#$AUX@_ToolInfo Properties
1070
     8
1000
CMD_POLYLINE@
1002
}
  0
LINE
  5
6C
330
1F
100
AcDbEntity
  8
0
  6
Continuous
 62
     5
420
      255
370
     0
100
AcDbLine
 10
1092.659601585425
 20
-234.1471488423071
 30
0.0
 11
1085.231572171473
 21
-234.1471488423071
 31
0.0
1001
TCAD
1000
TCW_CUSTOM_DATA
1002
{
1000
#$AUX@_ToolInfo Properties
1070
     8
1000
CMD_LINE@
1002
}
  0
TEXT
  5
6E
330
1F
100
AcDbEntity
  8
0
  6
Continuous
 62
     5
420
      255
100
AcDbText
 10
1125.572096066571
 20
-233.3474459079381
 30
0.0
 40
5.776946067810059
  1
4.
  7
_TCW_TXTSTY_4
 11
1125.572096066571
 21
-227.5704998401281
 31
0.0
100
AcDbText
 73
     3
1001
TCAD
1000
TCW40_TEXT
1002
{
1000
Times New Roman
1070
     0
1070
   257
1002
}
1000
TCW_CUSTOM_DATA
1002
{
1000
#$AUX@_ToolInfo Properties
1070
     8
1000
CMD_TEXT@
1002
}
  0
CIRCLE
  5
6F
330
1F
100
AcDbEntity
  8
0
  6
Continuous
 62
     5
420
      255
370
     0
100
AcDbCircle
 10
1129.241396013849
 20
-230.2241374861817
 30
0.0
 40
5.862654945854331
1001
TCAD
1000
TCW_CUSTOM_DATA
1002
{
1000
#$AUX@_ToolInfo Properties
1070
     8
1000
CMD_CENTERPTCIRCLE@
1002
}
  0
LWPOLYLINE
  5
70
330
1F
100
AcDbEntity
  8
0
  6
Continuous
 62
     5
420
      255
370
     0
100
AcDbPolyline
 90
        4
 70
   128
 43
0.0
 10
1085.584294892755
 20
-225.7970468546201
 10
1100.372194535142
 20
-225.7970468546201
 10
1095.048107910839
 20
-227.3909522052965
 10
1116.96430648264
 20
-227.3909522052965
1001
TCAD
1000
TCW_CUSTOM_DATA
1002
{
1000
#$AUX@_ToolInfo Properties
1070
     8
1000
CMD_POLYLINE@
1002
}
  0
LWPOLYLINE
  5
71
330
1F
100
AcDbEntity
  8
0
  6
Continuous
 62
     5
420
      255
370
     0
100
AcDbPolyline
 90
        3
 70
   128
 43
0.0
 10
1085.57322610404
 20
-226.5939995299583
 10
1095.623684843028
 20
-226.5939995299583
 10
1093.055726222494
 20
-227.4352273539265
1001
TCAD
1000
TCW_CUSTOM_DATA
1002
{
1000
#$AUX@_ToolInfo Properties
1070
     8
1000
CMD_POLYLINE@
1002
}
  0
LWPOLYLINE
  5
72
330
1F
100
AcDbEntity
  8
0
  6
Continuous
 62
     5
420
      255
370
     0
100
AcDbPolyline
 90
        3
 70
   128
 43
0.0
 10
1116.610105293601
 20
-225.7527717059902
 10
1102.663433475182
 20
-225.7527717059902
 10
1098.368744058082
 20
-227.125301313517
1001
TCAD
1000
TCW_CUSTOM_DATA
1002
{
1000
#$AUX@_ToolInfo Properties
1070
     8
1000
CMD_POLYLINE@
1002
}
  0
LINE
  5
73
330
1F
100
AcDbEntity
  8
0
  6
Continuous
 62
     5
420
      255
370
     0
100
AcDbLine
 10
1093.093865163646
 20
-227.4160634877557
 30
0.0
 11
1085.665835749694
 21
-227.4160634877557
 31
0.0
1001
TCAD
1000
TCW_CUSTOM_DATA
1002
{
1000
#$AUX@_ToolInfo Properties
1070
     8
1000
CMD_LINE@
1002
}
  0
SOLID
  5
74
330
1F
100
AcDbEntity
  8
0
  6
Continuous
 62
     5
420
      255
100
AcDbTrace
 10
1057.361021281254
 20
-225.0987773119081
 30
0.0
 11
1057.361021281254
 21
-226.0493948336645
 31
0.0
 12
1057.361021281254
 22
-225.0987773119081
 32
0.0
 13
1054.375488126988
 23
-226.0493948336645
 33
0.0
1001
TCAD
1000
TCW_CUSTOM_DATA
1002
{
1000
#$AUX@_ToolInfo Properties
1070
     8
1000
CMD_POLYLINE@
1002
}
  0
SOLID
  5
75
330
1F
100
AcDbEntity
  8
0
  6
Continuous
 62
     5
420
      255
100
AcDbTrace
 10
1057.361021281254
 20
-227.1782531407502
 30
0.0
 11
1057.361021281254
 21
-226.2276356189938
 31
0.0
 12
1057.361021281254
 22
-227.1782531407502
 32
0.0
 13
1054.375488126988
 23
-226.2276356189938
 33
0.0
1001
TCAD
1000
TCW_CUSTOM_DATA
1002
{
1000
#$AUX@_ToolInfo Properties
1070
     8
1000
CMD_POLYLINE@
1002
}
  0
SOLID
  5
76
330
1F
100
AcDbEntity
  8
0
  6
Continuous
 62
     5
420
      255
100
AcDbTrace
 10
1057.271900888589
 20
-232.5848902957397
 30
0.0
 11
1057.271900888589
 21
-233.535507817496
 31
0.0
 12
1057.271900888589
 22
-232.5848902957397
 32
0.0
 13
1054.286367734323
 23
-233.535507817496
 33
0.0
1001
TCAD
1000
TCW_CUSTOM_DATA
1002
{
1000
#$AUX@_ToolInfo Properties
1070
     8
1000
CMD_POLYLINE@
1002
}
  0
SOLID
  5
77
330
1F
100
AcDbEntity
  8
0
  6
Continuous
 62
     5
420
      255
100
AcDbTrace
 10
1057.271900888589
 20
-234.6643661245817
 30
0.0
 11
1057.271900888589
 21
-233.7137486028253
 31
0.0
 12
1057.271900888589
 22
-234.6643661245817
 32
0.0
 13
1054.286367734323
 23
-233.7137486028253
 33
0.0
1001
TCAD
1000
TCW_CUSTOM_DATA
1002
{
1000
#$AUX@_ToolInfo Properties
1070
     8
1000
CMD_POLYLINE@
1002
}
  0
LINE
  5
78
330
1F
100
AcDbEntity
  8
0
  6
Continuous
 62
     7
370
     0
100
AcDbLine
 10
1043.44325486437
 20
-291.4814818328472
 30
0.0
 11
897.4284179110108
 21
-291.4814818328472
 31
0.0
1001
TCAD
1000
TCW_CUSTOM_DATA
1002
{
1000
#$AUX@_ToolInfo Properties
1070
     8
1000
CMD_LINE@
1002
}
  0
LINE
  5
79
330
1F
100
AcDbEntity
  8
0
  6
Continuous
 62
     7
370
     0
100
AcDbLine
 10
1043.433850209351
 20
-318.2622697086297
 30
0.0
 11
897.4284179110117
 21
-318.2622697086297
 31
0.0
1001
TCAD
1000
TCW_CUSTOM_DATA
1002
{
1000
#$AUX@_ToolInfo Properties
1070
     8
1000
CMD_LINE@
1002
}
  0
LINE
  5
7A
330
1F
100
AcDbEntity
  8
0
  6
HIDDEN
 62
     7
370
     0
100
AcDbLine
 10
1043.44325486437
 20
-314.8431480277376
 30
0.0
 11
897.4284179110108
 21
-314.8431480277376
 31
0.0
1001
TCAD
1000
TCW_CUSTOM_DATA
1002
{
1000
#$AUX@_ToolInfo Properties
1070
     8
1000
CMD_LINE@
1002
}
  0
LINE
  5
7B
330
1F
100
AcDbEntity
  8
0
  6
Continuous
 62
     7
370
     0
100
AcDbLine
 10
897.4411663417284
 20
-291.4721653931221
 30
0.0
 11
897.4411663417284
 21
-318.2814354628246
 31
0.0
1001
TCAD
1000
TCW_CUSTOM_DATA
1002
{
1000
#$AUX@_ToolInfo Properties
1070
     8
1000
CMD_LINE@
1002
}
  0
LINE
  5
7C
330
1F
100
AcDbEntity
  8
0
  6
Continuous
 62
     7
370
     0
100
AcDbLine
 10
1043.441173468859
 20
-318.2622666179907
 30
0.0
 11
1043.441173468859
 21
-291.4802183906578
 31
0.0
1001
TCAD
1000
TCW_CUSTOM_DATA
1002
{
1000
#$AUX@_ToolInfo Properties
1070
     8
1000
CMD_LINE@
1002
}
  0
SOLID
  5
7D
330
1F
100
AcDbEntity
  8
0
  6
Continuous
 62
     5
420
      255
100
AcDbTrace
 10
1038.920795144878
 20
-350.1916951978366
 30
0.0
 11
1034.920795144878
 21
-350.1916951978366
 31
0.0
 12
1038.920795144878
 22
-350.1916951978366
 32
0.0
 13
1036.920795144878
 23
-353.6557968129743
 33
0.0
1001
TCAD
1000
TCW_CUSTOM_DATA
1002
{
1000
#$AUX@_ToolInfo Properties
1070
     8
1000
CMD_POLYLINE@
1002
}
  0
LWPOLYLINE
  5
7E
330
1F
100
AcDbEntity
  8
0
  6
HIDDEN
 62
     7
370
     0
100
AcDbPolyline
 90
        6
 70
   128
 43
0.0
 10
902.4386840209919
 20
-323.3917512797926
 10
897.4386840209919
 20
-323.3917512797926
 10
897.4386840209919
 20
-364.3917512797926
 10
1059.438684020992
 20
-364.3917512797926
 10
1059.438684020992
 20
-323.3917512797926
 10
1054.438684020992
 20
-323.3917512797926
1001
TCAD
1000
TCW_CUSTOM_DATA
1002
{
1000
#$AUX@_ToolInfo Properties
1070
     8
1000
CMD_POLYLINE@
1002
}
  0
MTEXT
  5
80
330
1F
100
AcDbEntity
  8
0
  6
Continuous
 62
     7
100
AcDbMText
 10
1107.151621833047
 20
-371.7330539418711
 30
0.0
 40
3.522528076171875
 41
60.20518770813942
 71
     1
 72
     1
  1
{SPRINGER    OSZTБLYЪ \PTOLУHAJУ R/C Modellje\PM1:1\PSRY MODELL 2008\Pfile: walrus03.tcw\PA/4 -ben nyomtathatу}
  7
_TCW_TXTSTY_5
 73
     1
 44
1.0
1001
TCAD
1000
TCW40_TEXT
1002
{
1000
Times New Roman
1070
     0
1070
   257
1002
}
1000
TCW_CUSTOM_DATA
1002
{
1000
#$AUX@_ToolInfo Properties
1070
     8
1000
CMD_TEXT@
1002
}
  0
LINE
  5
81
330
1F
100
AcDbEntity
  8
0
  6
Continuous
 62
     5
420
      255
370
     0
100
AcDbLine
 10
1075.207702250976
 20
-298.3562876219747
 30
0.0
 11
1055.156263790677
 21
-298.3562876219746
 31
0.0
1001
TCAD
1000
TCW_CUSTOM_DATA
1002
{
1000
#$AUX@_ToolInfo Properties
1070
     8
1000
CMD_LINE@
1002
}
  0
LINE
  5
82
330
1F
100
AcDbEntity
  8
0
  6
Continuous
 62
     5
420
      255
370
     0
100
AcDbLine
 10
1065.144205874306
 20
-308.3470600002898
 30
0.0
 11
1065.144205874306
 21
-288.3545963589917
 31
0.0
1001
TCAD
1000
TCW_CUSTOM_DATA
1002
{
1000
#$AUX@_ToolInfo Properties
1070
     8
1000
CMD_LINE@
1002
}
  0
CIRCLE
  5
83
330
1F
100
AcDbEntity
  8
0
  6
Continuous
 62
     7
370
     0
100
AcDbCircle
 10
1065.144305735844
 20
-298.3561282248859
 30
0.0
 40
2.0
1001
TCAD
1000
TCW_CUSTOM_DATA
1002
{
1000
#$AUX@_ToolInfo Properties
1070
     8
1000
CMD_CENTERPTCIRCLE@
1002
}
  0
CIRCLE
  5
84
330
1F
100
AcDbEntity
  8
0
  6
Continuous
 62
     7
370
     0
100
AcDbCircle
 10
1065.14430573583
 20
-298.3561282248849
 30
0.0
 40
10.0
1001
TCAD
1000
TCW_CUSTOM_DATA
1002
{
1000
#$AUX@_ToolInfo Properties
1070
     8
1000
CMD_CENTERPTCIRCLE@
1002
}
  0
TEXT
  5
85
330
1F
100
AcDbEntity
  8
0
  6
Continuous
 62
     5
420
      255
100
AcDbText
 10
1075.820111001231
 20
-307.2611290735344
 30
0.0
 40
5.012131690979004
  1
13.
  7
_TCW_TXTSTY_5
 11
1075.820111001231
 21
-302.2489973825554
 31
0.0
100
AcDbText
 73
     3
1001
TCAD
1000
TCW40_TEXT
1002
{
1000
Times New Roman
1070
     0
1070
   257
1002
}
1000
TCW_CUSTOM_DATA
1002
{
1000
#$AUX@_ToolInfo Properties
1070
     8
1000
CMD_TEXT@
1002
}
  0
CIRCLE
  5
86
330
1F
100
AcDbEntity
  8
0
  6
Continuous
 62
     5
420
      255
370
     0
100
AcDbCircle
 10
1080.118455436051
 20
-304.8430509104478
 30
0.0
 40
5.862654945854445
1001
TCAD
1000
TCW_CUSTOM_DATA
1002
{
1000
#$AUX@_ToolInfo Properties
1070
     8
1000
CMD_CENTERPTCIRCLE@
1002
}
  0
LWPOLYLINE
  5
87
330
1F
100
AcDbEntity
  8
0
  6
Continuous
 62
     7
370
     0
100
AcDbPolyline
 90
        4
 70
   129
 43
0.0
 10
893.791713504535
 20
-216.5463740669235
 10
1173.791713504535
 20
-216.5463740669235
 10
1173.791713504535
 20
-409.5463740669235
 10
893.791713504535
 20
-409.5463740669235
1001
TCAD
1000
TCW_CUSTOM_DATA
1002
{
1000
#$AUX@_ToolInfo Properties
1070
     8
1000
CMD_RECTANGLE@
1002
}
  0
LINE
  5
88
330
1F
100
AcDbEntity
  8
0
  6
Continuous
 62
     5
420
      255
370
     0
100
AcDbLine
 10
1067.341414470743
 20
-274.3986401577521
 30
0.0
 11
1067.341414470743
 21
-253.2313720395639
 31
0.0
1001
TCAD
1000
TCW_CUSTOM_DATA
1002
{
1000
#$AUX@_ToolInfo Properties
1070
     8
1000
CMD_LINE@
1002
}
  0
LINE
  5
89
330
1F
100
AcDbEntity
  8
0
  6
Continuous
 62
     5
420
      255
370
     0
100
AcDbLine
 10
1059.236945012312
 20
-256.4100555230904
 30
0.0
 11
1075.467643697995
 21
-256.4100555230904
 31
0.0
1001
TCAD
1000
TCW_CUSTOM_DATA
1002
{
1000
#$AUX@_ToolInfo Properties
1070
     8
1000
CMD_LINE@
1002
}
  0
ARC
  5
8A
330
1F
100
AcDbEntity
  8
0
  6
Continuous
 62
     7
370
     0
100
AcDbCircle
 10
1067.341413859399
 20
-256.4100497438734
 30
0.0
 40
11.99999999999999
100
AcDbArc
 50
0.0
 51
179.942472862435
1001
TCAD
1000
TCW_CUSTOM_DATA
1002
{
1000
#$AUX@_ToolInfo Properties
1070
     8
1000
CMD_CENTERPTCIRCLE@
1002
}
  0
LINE
  5
8B
330
1F
100
AcDbEntity
  8
0
  6
Continuous
 62
     5
420
      255
370
     0
100
AcDbLine
 10
1067.342570921859
 20
-253.6464227843541
 30
0.0
 11
1067.342570921859
 21
-258.8834125947802
 31
0.0
1001
TCAD
1000
TCW_CUSTOM_DATA
1002
{
1000
#$AUX@_ToolInfo Properties
1070
     8
1000
CMD_LINE@
1002
}
  0
CIRCLE
  5
8C
330
1F
100
AcDbEntity
  8
0
  6
Continuous
 62
     7
370
     0
100
AcDbCircle
 10
1067.34257119269
 20
-256.4128433483689
 30
0.0
 40
3.175000000000011
1001
TCAD
1000
TCW_CUSTOM_DATA
1002
{
1000
#$AUX@_ToolInfo Properties
1070
     8
1000
CMD_CENTERPTCIRCLE@
1002
}
  0
LINE
  5
8D
330
1F
100
AcDbEntity
  8
0
  6
Continuous
 62
     5
420
      255
370
     0
100
AcDbLine
 10
1074.342575243614
 20
-255.2744921124246
 30
0.0
 11
1074.342575243614
 21
-257.5809447785344
 31
0.0
1001
TCAD
1000
TCW_CUSTOM_DATA
1002
{
1000
#$AUX@_ToolInfo Properties
1070
     8
1000
CMD_LINE@
1002
}
  0
LINE
  5
8E
330
1F
100
AcDbEntity
  8
0
  6
Continuous
 62
     5
420
      255
370
     0
100
AcDbLine
 10
1060.342570902215
 20
-255.2744921124246
 30
0.0
 11
1060.342570902215
 21
-257.5467751094069
 31
0.0
1001
TCAD
1000
TCW_CUSTOM_DATA
1002
{
1000
#$AUX@_ToolInfo Properties
1070
     8
1000
CMD_LINE@
1002
}
  0
CIRCLE
  5
8F
330
1F
100
AcDbEntity
  8
0
  6
Continuous
 62
     7
370
     0
100
AcDbCircle
 10
1074.341268163127
 20
-256.4132274167229
 30
0.0
 40
1.150000000000091
1001
TCAD
1000
TCW_CUSTOM_DATA
1002
{
1000
#$AUX@_ToolInfo Properties
1070
     8
1000
CMD_CENTERPTCIRCLE@
1002
}
  0
CIRCLE
  5
90
330
1F
100
AcDbEntity
  8
0
  6
Continuous
 62
     7
370
     0
100
AcDbCircle
 10
1060.342573344944
 20
-256.4128478559213
 30
0.0
 40
1.14999999999992
1001
TCAD
1000
TCW_CUSTOM_DATA
1002
{
1000
#$AUX@_ToolInfo Properties
1070
     8
1000
CMD_CENTERPTCIRCLE@
1002
}
  0
LINE
  5
91
330
1F
100
AcDbEntity
  8
0
  6
Continuous
 62
     7
370
     0
100
AcDbLine
 10
1055.341405271202
 20
-256.4100560827233
 30
0.0
 11
1055.341405271201
 21
-277.4100400087019
 31
0.0
1001
TCAD
1000
TCW_CUSTOM_DATA
1002
{
1000
#$AUX@_ToolInfo Properties
1070
     8
1000
CMD_LINE@
1002
}
  0
LINE
  5
92
330
1F
100
AcDbEntity
  8
0
  6
Continuous
 62
     7
370
     0
100
AcDbLine
 10
1055.341405271201
 20
-277.4100400087019
 30
0.0
 11
1065.841092209286
 21
-277.4100400087019
 31
0.0
1001
TCAD
1000
TCW_CUSTOM_DATA
1002
{
1000
#$AUX@_ToolInfo Properties
1070
     8
1000
CMD_LINE@
1002
}
  0
LINE
  5
93
330
1F
100
AcDbEntity
  8
0
  6
Continuous
 62
     7
370
     0
100
AcDbLine
 10
1079.341404781744
 20
-256.4100581721771
 30
0.0
 11
1079.341404781745
 21
-277.4100397518772
 31
0.0
1001
TCAD
1000
TCW_CUSTOM_DATA
1002
{
1000
#$AUX@_ToolInfo Properties
1070
     8
1000
CMD_LINE@
1002
}
  0
LWPOLYLINE
  5
94
330
1F
100
AcDbEntity
  8
0
  6
Continuous
 62
     7
370
     0
100
AcDbPolyline
 90
        4
 70
   128
 43
0.0
 10
1065.840203227126
 20
-277.4100728561269
 10
1065.840203227126
 20
-274.4100728561269
 10
1068.840203227126
 20
-274.4100728561269
 10
1068.840203227126
 20
-277.4100728561269
1001
TCAD
1000
TCW_CUSTOM_DATA
1002
{
1000
#$AUX@_ToolInfo Properties
1070
     8
1000
CMD_POLYLINE@
1002
}
  0
LINE
  5
95
330
1F
100
AcDbEntity
  8
0
  6
Continuous
 62
     7
370
     0
100
AcDbLine
 10
1068.838911115939
 20
-277.4100388411481
 30
0.0
 11
1079.341983933036
 21
-277.4100388411481
 31
0.0
1001
TCAD
1000
TCW_CUSTOM_DATA
1002
{
1000
#$AUX@_ToolInfo Properties
1070
     8
1000
CMD_LINE@
1002
}
  0
TEXT
  5
97
330
1F
100
AcDbEntity
  8
0
  6
Continuous
 62
     5
420
      255
100
AcDbText
 10
1069.041136931421
 20
-270.5808744261286
 30
0.0
 40
5.012131690979004
  1
10.
  7
_TCW_TXTSTY_6
 11
1069.041136931421
 21
-265.5687427351496
 31
0.0
100
AcDbText
 73
     3
1001
TCAD
1000
TCW40_TEXT
1002
{
1000
Times New Roman
1070
     0
1070
   257
1002
}
1000
TCW_CUSTOM_DATA
1002
{
1000
#$AUX@_ToolInfo Properties
1070
     8
1000
CMD_TEXT@
1002
}
  0
CIRCLE
  5
98
330
1F
100
AcDbEntity
  8
0
  6
Continuous
 62
     5
420
      255
370
     0
100
AcDbCircle
 10
1073.339481366241
 20
-268.1627962630419
 30
0.0
 40
5.862654945854359
1001
TCAD
1000
TCW_CUSTOM_DATA
1002
{
1000
#$AUX@_ToolInfo Properties
1070
     8
1000
CMD_CENTERPTCIRCLE@
1002
}
  0
TEXT
  5
9A
330
1F
100
AcDbEntity
  8
0
  6
Continuous
 62
     5
420
      255
100
AcDbText
 10
907.6824443673852
 20
-391.636817912928
 30
0.0
 40
5.012131690979004
  1
11.
  7
_TCW_TXTSTY_7
 11
907.6824443673852
 21
-386.624686221949
 31
0.0
100
AcDbText
 73
     3
1001
TCAD
1000
TCW40_TEXT
1002
{
1000
Times New Roman
1070
     0
1070
   257
1002
}
1000
TCW_CUSTOM_DATA
1002
{
1000
#$AUX@_ToolInfo Properties
1070
     8
1000
CMD_TEXT@
1002
}
  0
CIRCLE
  5
9B
330
1F
100
AcDbEntity
  8
0
  6
Continuous
 62
     5
420
      255
370
     0
100
AcDbCircle
 10
911.9807888022051
 20
-389.2187397498413
 30
0.0
 40
5.862654945854274
1001
TCAD
1000
TCW_CUSTOM_DATA
1002
{
1000
#$AUX@_ToolInfo Properties
1070
     8
1000
CMD_CENTERPTCIRCLE@
1002
}
  0
INSERT
  5
A0
330
1F
100
AcDbEntity
  8
0
  6
HIDDEN
 62
     5
420
      255
100
AcDbBlockReference
  2
*E3
 10
0.0
 20
0.0
 30
0.0
1001
TCAD
1000
TC25ExternalObject
1002
{
1000
TCW30CURVE
1000

1070
     0
1071
 16711680
1040
1.0
1040
0.0
1000
HIDDEN
1000
0
1071
       25
1071
      162
1010
904.4698625208423
1020
-398.7740781625965
1030
0.0
1071
     6274
1010
908.0247760064979
1020
-398.4036767367967
1030
0.0
1071
     6274
1010
916.9694766038435
1020
-397.4212222135519
1030
0.0
1071
      130
1010
920.5104230682111
1020
-396.9342286974146
1030
0.0
1071
     6274
1010
923.8648679803794
1020
-396.4728851162832
1030
0.0
1071
     6274
1010
927.2196382485356
1020
-396.0091171325031
1030
0.0
1071
      130
1010
930.5619042756259
1020
-395.4658842332186
1030
0.0
1071
     6274
1010
933.5255688917925
1020
-394.9841870526537
1030
0.0
1071
     6274
1010
936.4873459873345
1020
-394.4795545855587
1030
0.0
1071
      130
1010
939.4254831585279
1020
-393.8598824755042
1030
0.0
1071
     6274
1010
942.5814567097984
1020
-393.1942672656472
1030
0.0
1071
     6274
1010
945.7048980838242
1020
-392.3811536592444
1030
0.0
1071
      130
1010
948.8373246527433
1020
-391.6114800147042
1030
0.0
1071
     6274
1010
952.1166508662175
1020
-390.8057114187519
1030
0.0
1071
     6274
1010
955.3969656567003
1020
-390.0022005045979
1030
0.0
1071
      130
1010
958.6603631054443
1020
-389.1336487313735
1030
0.0
1071
     6274
1010
962.1213313762835
1020
-388.2125135721029
1030
0.0
1071
     6274
1010
965.5611066394147
1020
-387.212823383307
1030
0.0
1071
      130
1010
969.0088198898954
1020
-386.2428455679373
1030
0.0
1071
     6274
1010
972.5743107017781
1020
-385.2397322759751
1030
0.0
1071
     6274
1010
976.1629370808657
1020
-384.314528779426
1030
0.0
1071
      130
1010
979.6999408105096
1020
-383.214385110533
1030
0.0
1071
     6274
1010
984.3279746945148
1020
-381.7748892643061
1030
0.0
1071
     6274
1010
994.0441711022706
1020
-378.1921805216558
1030
0.0
1071
      162
1010
998.6201652229117
1020
-376.5936600721408
1030
0.0
1070
     3
1071
-2147483635
1000
$SPLINESEGS
1070
    18
1070
    20
1000
$SPLFRAME
1070
    18
1070
     0
1000
$SPLINETYPE
1070
    18
1070
     1
1000
$SHOWCONTRPTS
1070
    18
1070
     1
1000
$CURVESMOOTH
1070
    18
1070
     1
1000
DEGREE
1070
    19
1071
        3
1000
RATIONAL
1070
    17
1070
 16640
1000
SPLINECLOSED
1070
    17
1070
 20480
1000
NPOINTS
1070
     3
1071
        0
1000
NKNOTS
1070
     3
1071
        0
1000
WEIGHTS
1070
  8204
1070
    12
1070
     8
1004
0000000000000000
1070
    16
1000
KNOTS
1070
  8204
1070
    12
1070
     8
1004
0000000000000000
1070
    16
1000
REALDEGREE
1070
    19
1071
        3
1002
}
1000
TCW_CUSTOM_DATA
1002
{
1000
#$AUX@_ToolInfo Properties
1070
     8
1000
CMD_BEZIER@
1002
}
  0
LINE
  5
A1
330
1F
100
AcDbEntity
  8
0
  6
Continuous
 62
     7
370
     0
100
AcDbLine
 10
904.4680170912095
 20
-398.8320449781498
 30
0.0
 11
904.4680170912095
 21
-382.2278718635165
 31
0.0
1001
TCAD
1000
TCW_CUSTOM_DATA
1002
{
1000
#$AUX@_ToolInfo Properties
1070
     8
1000
CMD_LINE@
1002
}
  0
LINE
  5
A2
330
1F
100
AcDbEntity
  8
0
  6
Continuous
 62
     7
370
     0
100
AcDbLine
 10
959.7501628415855
 20
-374.5937346114248
 30
0.0
 11
959.7501628415855
 21
-377.2015798510585
 31
0.0
1001
TCAD
1000
TCW_CUSTOM_DATA
1002
{
1000
#$AUX@_ToolInfo Properties
1070
     8
1000
CMD_LINE@
1002
}
  0
ARC
  5
A3
330
1F
100
AcDbEntity
  8
0
  6
Continuous
 62
     7
370
     0
100
AcDbCircle
 10
952.1725423533046
 20
-377.2015798510585
 30
0.0
 40
7.563914964341089
100
AcDbArc
 50
-91.85304063082576
 51
1.880246803809215
1001
TCAD
1000
TCW_CUSTOM_DATA
1002
{
1000
#$AUX@_ToolInfo Properties
1070
     8
1000
CMD_CENTERPTCIRCLE@
1002
}
  0
LINE
  5
A4
330
1F
100
AcDbEntity
  8
0
  6
Continuous
 62
     7
370
     0
100
AcDbLine
 10
925.1521038119015
 20
-389.3512119983578
 30
0.0
 11
928.1479924161652
 21
-389.5082198670865
 31
0.0
1001
TCAD
1000
TCW_CUSTOM_DATA
1002
{
1000
#$AUX@_ToolInfo Properties
1070
     8
1000
CMD_LINE@
1002
}
  0
LINE
  5
A5
330
1F
100
AcDbEntity
  8
0
  6
Continuous
 62
     7
370
     0
100
AcDbLine
 10
925.464510059028
 20
-383.3648974724189
 30
0.0
 11
904.4780556010176
 21
-382.2650439992498
 31
0.0
1001
TCAD
1000
TCW_CUSTOM_DATA
1002
{
1000
#$AUX@_ToolInfo Properties
1070
     8
1000
CMD_LINE@
1002
}
  0
LINE
  5
A6
330
1F
100
AcDbEntity
  8
0
  6
Continuous
 62
     7
370
     0
100
AcDbLine
 10
928.4620817666625
 20
-383.5206625278307
 30
0.0
 11
952.154525000944
 21
-384.762330863529
 31
0.0
1001
TCAD
1000
TCW_CUSTOM_DATA
1002
{
1000
#$AUX@_ToolInfo Properties
1070
     8
1000
CMD_LINE@
1002
}
  0
LINE
  5
A7
330
1F
100
AcDbEntity
  8
0
  6
Continuous
 62
     7
370
     0
100
AcDbLine
 10
1050.264696367909
 20
-398.8325569517903
 30
0.0
 11
1050.264702185791
 21
-379.3363790741607
 31
0.0
1001
TCAD
1000
TCW_CUSTOM_DATA
1002
{
1000
#$AUX@_ToolInfo Properties
1070
     8
1000
CMD_LINE@
1002
}
  0
LINE
  5
A8
330
1F
100
AcDbEntity
  8
0
  6
Continuous
 62
     7
370
     0
100
AcDbLine
 10
1050.264702185791
 20
-379.3363790741607
 30
0.0
 11
959.7496099956113
 21
-374.5929082495421
 31
0.0
1001
TCAD
1000
TCW_CUSTOM_DATA
1002
{
1000
#$AUX@_ToolInfo Properties
1070
     8
1000
CMD_LINE@
1002
}
  0
LINE
  5
A9
330
1F
100
AcDbEntity
  8
0
  6
Continuous
 62
     7
370
     0
100
AcDbLine
 10
1050.264696367908
 20
-398.832556951791
 30
0.0
 11
904.4678640785116
 21
-398.8324173226266
 31
0.0
1001
TCAD
1000
TCW_CUSTOM_DATA
1002
{
1000
#$AUX@_ToolInfo Properties
1070
     8
1000
CMD_LINE@
1002
}
  0
LINE
  5
AA
330
1F
100
AcDbEntity
  8
0
  6
Continuous
 62
     7
370
     0
100
AcDbLine
 10
925.1533399153329
 20
-389.3551257780285
 30
0.0
 11
925.4642855477039
 21
-383.3635712272638
 31
0.0
1001
TCAD
1000
TCW_CUSTOM_DATA
1002
{
1000
#$AUX@_ToolInfo Properties
1070
     8
1000
CMD_LINE@
1002
}
  0
LINE
  5
AB
330
1F
100
AcDbEntity
  8
0
  6
Continuous
 62
     7
370
     0
100
AcDbLine
 10
928.4607315233259
 20
-383.5213844944657
 30
0.0
 11
928.1471110898162
 21
-389.5075894429523
 31
0.0
1001
TCAD
1000
TCW_CUSTOM_DATA
1002
{
1000
#$AUX@_ToolInfo Properties
1070
     8
1000
CMD_LINE@
1002
}
  0
LINE
  5
AC
330
1F
100
AcDbEntity
  8
0
  6
Continuous
 62
     5
420
      255
370
     0
100
AcDbLine
 10
988.7836142401409
 20
-376.109614473523
 30
0.0
 11
988.7836142401409
 21
-384.9809205780539
 31
0.0
1001
TCAD
1000
TCW_CUSTOM_DATA
1002
{
1000
#$AUX@_ToolInfo Properties
1070
     8
1000
CMD_LINE@
1002
}
  0
LINE
  5
AD
330
1F
100
AcDbEntity
  8
0
  6
Continuous
 62
     7
370
     0
100
AcDbLine
 10
1056.700202792277
 20
-393.6359679035964
 30
0.0
 11
1100.512020943006
 21
-395.9299359935209
 31
0.0
1001
TCAD
1000
TCW_CUSTOM_DATA
1002
{
1000
#$AUX@_ToolInfo Properties
1070
     8
1000
CMD_LINE@
1002
}
  0
LINE
  5
AE
330
1F
100
AcDbEntity
  8
0
  6
Continuous
 62
     7
370
     0
100
AcDbLine
 10
1100.512020943006
 20
-395.9334328960974
 30
0.0
 11
1100.512020943006
 21
-377.7705209156694
 31
0.0
1001
TCAD
1000
TCW_CUSTOM_DATA
1002
{
1000
#$AUX@_ToolInfo Properties
1070
     8
1000
CMD_LINE@
1002
}
  0
INSERT
  5
B3
330
1F
100
AcDbEntity
  8
0
  6
Continuous
 62
     7
100
AcDbBlockReference
  2
*E4
 10
0.0
 20
0.0
 30
0.0
1001
TCAD
1000
TC25ExternalObject
1002
{
1000
TCW30CURVE
1000

1070
     0
1071
        0
1040
1.0
1040
0.0
1000
Continuous
1000
0
1071
       64
1071
      162
1010
1056.706322371658
1020
-393.6324710009657
1030
0.0
1071
     6274
1010
1056.797806475326
1020
-393.5997823182799
1030
0.0
1071
     6274
1010
1056.889308787758
1020
-393.567144550788
1030
0.0
1071
      130
1010
1056.980829223912
1020
-393.534557728824
1030
0.0
1071
     6274
1010
1057.197036234667
1020
-393.4575749295402
1030
0.0
1071
     6274
1010
1057.413763488181
1020
-393.3820409757281
1030
0.0
1071
      130
1010
1057.629504651851
1020
-393.3037621587759
1030
0.0
1071
     6274
1010
1057.943842711772
1020
-393.1897087670397
1030
0.0
1071
     6274
1010
1058.257388638358
1020
-393.0734819536186
1030
0.0
1071
      130
1010
1058.571045670414
1020
-392.9575688037036
1030
0.0
1071
     6274
1010
1058.812522895078
1020
-392.8683299763129
1030
0.0
1071
     6274
1010
1059.053341305402
1020
-392.7773131452977
1030
0.0
1071
      130
1010
1059.294904503747
1020
-392.688307305314
1030
0.0
1071
     6274
1010
1059.679725866591
1020
-392.5465168799578
1030
0.0
1071
     6274
1010
1060.065267177607
1020
-392.4066868081185
1030
0.0
1071
      130
1010
1060.450193692447
1020
-392.2651820937191
1030
0.0
1071
     6274
1010
1060.797723149661
1020
-392.1374250941555
1030
0.0
1071
     6274
1010
1061.14508162042
1020
-392.0092020440531
1030
0.0
1071
      130
1010
1061.492270660241
1020
-391.8805228103055
1030
0.0
1071
     6274
1010
1062.053985373351
1020
-391.6723335802962
1030
0.0
1071
     6274
1010
1062.615106649416
1020
-391.4625447945995
1030
0.0
1071
      130
1010
1063.176903476098
1020
-391.2545772491828
1030
0.0
1071
     6274
1010
1063.651064939698
1020
-391.0790508114517
1030
0.0
1071
     6274
1010
1064.127350157156
1020
-390.9092225463652
1030
0.0
1071
      130
1010
1064.600142824728
1020
-390.7300418627096
1030
0.0
1071
     6274
1010
1065.142363213972
1020
-390.5245492087402
1030
0.0
1071
     6274
1010
1065.681809736631
1020
-390.3118025961517
1030
0.0
1071
      130
1010
1066.221831394418
1020
-390.1005993990445
1030
0.0
1071
     6274
1010
1066.742831894424
1020
-389.8968354023436
1030
0.0
1071
     6274
1010
1067.263079132249
1020
-389.6911475557171
1030
0.0
1071
      130
1010
1067.783198394715
1020
-389.4851445456169
1030
0.0
1071
     6274
1010
1068.449113162962
1020
-389.2213964850691
1030
0.0
1071
     6274
1010
1069.115475402167
1020
-388.9587535635614
1030
0.0
1071
      130
1010
1069.779929765681
1020
-388.6913476608227
1030
0.0
1071
     6274
1010
1070.450721150862
1020
-388.421391459534
1030
0.0
1071
     6274
1010
1071.118999433571
1020
-388.1452309929945
1030
0.0
1071
      130
1010
1071.788900295559
1020
-387.8730724580273
1030
0.0
1071
     6274
1010
1072.197794587163
1020
-387.7069522487936
1030
0.0
1071
     6274
1010
1072.606980705726
1020
-387.5415500354129
1030
0.0
1071
      130
1010
1073.016313099907
1020
-387.3765122921661
1030
0.0
1071
     6274
1010
1073.959991001757
1020
-386.9960330691987
1030
0.0
1071
     6274
1010
1074.9033013391
1020
-386.6146347188352
1030
0.0
1071
      130
1010
1075.847929960852
1020
-386.2365220524022
1030
0.0
1071
     6274
1010
1076.589395473971
1020
-385.9397308100262
1030
0.0
1071
     6274
1010
1077.328300730778
1020
-385.6362690664582
1030
0.0
1071
      130
1010
1078.074582676274
1020
-385.3518057005851
1030
0.0
1071
     6274
1010
1079.080668260687
1020
-384.9683119105693
1030
0.0
1071
     6274
1010
1080.092276162476
1020
-384.5993721305469
1030
0.0
1071
      130
1010
1081.104648758487
1020
-384.2327968763488
1030
0.0
1071
     6274
1010
1082.773850478107
1020
-383.6283869514964
1030
0.0
1071
     6274
1010
1084.447432284955
1020
-383.0361419664846
1030
0.0
1071
      130
1010
1086.119207053139
1020
-382.438885855167
1030
0.0
1071
     6274
1010
1087.321886567521
1020
-382.0092181130816
1030
0.0
1071
     6274
1010
1088.520674242465
1020
-381.5684287749577
1030
0.0
1071
      130
1010
1089.728010512074
1020
-381.1520257070194
1030
0.0
1071
     6274
1010
1090.940661472939
1020
-380.7337896338117
1030
0.0
1071
     6274
1010
1092.159276226074
1020
-380.3329253183435
1030
0.0
1071
      130
1010
1093.378776801928
1020
-379.9351036104017
1030
0.0
1071
     6274
1010
1094.88923690338
1020
-379.442365985479
1030
0.0
1071
     6274
1010
1096.39672457318
1020
-378.9394590528793
1030
0.0
1071
      130
1010
1097.917756345791
1020
-378.4803921385828
1030
0.0
1071
     6274
1010
1098.776395363691
1020
-378.2212438607232
1030
0.0
1071
     6274
1010
1099.643249965256
1020
-377.9879048023706
1030
0.0
1071
      162
1010
1100.515954958663
1020
-377.7810116235048
1030
0.0
1070
     3
1071
-2147483635
1000
$SPLINESEGS
1070
    18
1070
    20
1000
$SPLFRAME
1070
    18
1070
     0
1000
$SPLINETYPE
1070
    18
1070
     1
1000
$SHOWCONTRPTS
1070
    18
1070
     1
1000
$CURVESMOOTH
1070
    18
1070
     1
1000
DEGREE
1070
    19
1071
        3
1000
RATIONAL
1070
    17
1070
 16640
1000
SPLINECLOSED
1070
    17
1070
 20480
1000
NPOINTS
1070
     3
1071
        0
1000
NKNOTS
1070
     3
1071
        0
1000
WEIGHTS
1070
  8204
1070
    12
1070
     8
1004
0000000000000000
1070
    16
1000
KNOTS
1070
  8204
1070
    12
1070
     8
1004
0000000000000000
1070
    16
1000
REALDEGREE
1070
    19
1071
        3
1002
}
1000
TCW_CUSTOM_DATA
1002
{
1000
#$AUX@_ToolInfo Properties
1070
     8
1000
CMD_BEZIER@
1002
}
  0
TEXT
  5
B5
330
1F
100
AcDbEntity
  8
0
  6
Continuous
 62
     5
420
      255
100
AcDbText
 10
1089.21893094049
 20
-390.440939550982
 30
0.0
 40
5.012131690979004
  1
12.
  7
_TCW_TXTSTY_8
 11
1089.21893094049
 21
-385.428807860003
 31
0.0
100
AcDbText
 73
     3
1001
TCAD
1000
TCW40_TEXT
1002
{
1000
Times New Roman
1070
     0
1070
   257
1002
}
1000
TCW_CUSTOM_DATA
1002
{
1000
#$AUX@_ToolInfo Properties
1070
     8
1000
CMD_TEXT@
1002
}
  0
CIRCLE
  5
B6
330
1F
100
AcDbEntity
  8
0
  6
Continuous
 62
     5
420
      255
370
     0
100
AcDbCircle
 10
1093.51727537531
 20
-388.0228613878954
 30
0.0
 40
5.862654945854302
1001
TCAD
1000
TCW_CUSTOM_DATA
1002
{
1000
#$AUX@_ToolInfo Properties
1070
     8
1000
CMD_CENTERPTCIRCLE@
1002
}
  0
LINE
  5
B7
330
1F
100
AcDbEntity
  8
0
  6
Continuous
 62
     7
370
     0
100
AcDbLine
 10
963.6374794725457
 20
-378.7953994628974
 30
0.0
 11
963.6374794725457
 21
-380.7913386812006
 31
0.0
1001
TCAD
1000
TCW_CUSTOM_DATA
1002
{
1000
#$AUX@_ToolInfo Properties
1070
     8
1000
CMD_LINE@
1002
}
  0
CIRCLE
  5
B8
330
1F
100
AcDbEntity
  8
0
  6
Continuous
 62
     7
370
     0
100
AcDbCircle
 10
963.6374794725457
 20
-379.7967857123361
 30
0.0
 40
1.0
1001
TCAD
1000
TCW_CUSTOM_DATA
1002
{
1000
#$AUX@_ToolInfo Properties
1070
     8
1000
CMD_CENTERPTCIRCLE@
1002
}
  0
LINE
  5
B9
330
1F
100
AcDbEntity
  8
0
  6
Continuous
 62
     7
370
     0
100
AcDbLine
 10
962.6404416747594
 20
-379.7961645051279
 30
0.0
 11
964.6363808930626
 21
-379.7961645051279
 31
0.0
1001
TCAD
1000
TCW_CUSTOM_DATA
1002
{
1000
#$AUX@_ToolInfo Properties
1070
     8
1000
CMD_LINE@
1002
}
  0
LINE
  5
BA
330
1F
100
AcDbEntity
  8
0
  6
Continuous
 62
     5
420
      255
370
     0
100
AcDbLine
 10
986.7823660881363
 20
-384.9809205780539
 30
0.0
 11
986.7823660881363
 21
-375.9971958192365
 31
0.0
1001
TCAD
1000
TCW_CUSTOM_DATA
1002
{
1000
#$AUX@_ToolInfo Properties
1070
     8
1000
CMD_LINE@
1002
}
  0
LINE
  5
BB
330
1F
100
AcDbEntity
  8
0
  6
Continuous
 62
     5
420
      255
370
     0
100
AcDbLine
 10
990.7824500744125
 20
-384.9319923610889
 30
0.0
 11
990.7824500744125
 21
-376.335749430353
 31
0.0
1001
TCAD
1000
TCW_CUSTOM_DATA
1002
{
1000
#$AUX@_ToolInfo Properties
1070
     8
1000
CMD_LINE@
1002
}
  0
LWPOLYLINE
  5
BC
330
1F
100
AcDbEntity
  8
0
  6
Continuous
 62
     5
420
      255
370
     0
100
AcDbPolyline
 90
        4
 70
   128
 43
0.0
 10
1018.772250362396
 20
-401.0642027526373
 10
1033.560150004782
 20
-401.0642027526373
 10
1028.236063380479
 20
-402.6581081033137
 10
1050.15226195228
 20
-402.6581081033137
1001
TCAD
1000
TCW_CUSTOM_DATA
1002
{
1000
#$AUX@_ToolInfo Properties
1070
     8
1000
CMD_POLYLINE@
1002
}
  0
LWPOLYLINE
  5
BD
330
1F
100
AcDbEntity
  8
0
  6
Continuous
 62
     5
420
      255
370
     0
100
AcDbPolyline
 90
        3
 70
   128
 43
0.0
 10
1018.761181573681
 20
-401.8611554279755
 10
1028.811640312668
 20
-401.8611554279755
 10
1026.243681692134
 20
-402.7023832519437
1001
TCAD
1000
TCW_CUSTOM_DATA
1002
{
1000
#$AUX@_ToolInfo Properties
1070
     8
1000
CMD_POLYLINE@
1002
}
  0
LWPOLYLINE
  5
BE
330
1F
100
AcDbEntity
  8
0
  6
Continuous
 62
     5
420
      255
370
     0
100
AcDbPolyline
 90
        3
 70
   128
 43
0.0
 10
1049.798060763241
 20
-401.0199276040074
 10
1035.851388944822
 20
-401.0199276040074
 10
1031.556699527722
 20
-402.3924572115342
1001
TCAD
1000
TCW_CUSTOM_DATA
1002
{
1000
#$AUX@_ToolInfo Properties
1070
     8
1000
CMD_POLYLINE@
1002
}
  0
LINE
  5
BF
330
1F
100
AcDbEntity
  8
0
  6
Continuous
 62
     5
420
      255
370
     0
100
AcDbLine
 10
1026.281820633286
 20
-402.6832193857729
 30
0.0
 11
1018.853791219334
 21
-402.6832193857729
 31
0.0
1001
TCAD
1000
TCW_CUSTOM_DATA
1002
{
1000
#$AUX@_ToolInfo Properties
1070
     8
1000
CMD_LINE@
1002
}
  0
LWPOLYLINE
  5
C0
330
1F
100
AcDbEntity
  8
0
  6
Continuous
 62
     5
420
      255
370
     0
100
AcDbPolyline
 90
        4
 70
   128
 43
0.0
 10
1083.808846701919
 20
-247.9655700381394
 10
1083.808846701919
 20
-262.7534696805257
 10
1082.214941351243
 20
-257.4293830562229
 10
1082.214941351243
 20
-279.345581628024
1001
TCAD
1000
TCW_CUSTOM_DATA
1002
{
1000
#$AUX@_ToolInfo Properties
1070
     8
1000
CMD_POLYLINE@
1002
}
  0
LWPOLYLINE
  5
C1
330
1F
100
AcDbEntity
  8
0
  6
Continuous
 62
     5
420
      255
370
     0
100
AcDbPolyline
 90
        3
 70
   128
 43
0.0
 10
1083.011894026581
 20
-247.9545012494244
 10
1083.011894026581
 20
-258.0049599884115
 10
1082.170666202613
 20
-255.4370013678773
1001
TCAD
1000
TCW_CUSTOM_DATA
1002
{
1000
#$AUX@_ToolInfo Properties
1070
     8
1000
CMD_POLYLINE@
1002
}
  0
LWPOLYLINE
  5
C2
330
1F
100
AcDbEntity
  8
0
  6
Continuous
 62
     5
420
      255
370
     0
100
AcDbPolyline
 90
        3
 70
   128
 43
0.0
 10
1083.853121850549
 20
-278.9913804389845
 10
1083.853121850549
 20
-265.044708620566
 10
1082.480592243023
 20
-260.7500192034655
1001
TCAD
1000
TCW_CUSTOM_DATA
1002
{
1000
#$AUX@_ToolInfo Properties
1070
     8
1000
CMD_POLYLINE@
1002
}
  0
LINE
  5
C3
330
1F
100
AcDbEntity
  8
0
  6
Continuous
 62
     5
420
      255
370
     0
100
AcDbLine
 10
1082.189830068784
 20
-255.4751403090296
 30
0.0
 11
1082.189830068784
 21
-248.0471108950777
 31
0.0
1001
TCAD
1000
TCW_CUSTOM_DATA
1002
{
1000
#$AUX@_ToolInfo Properties
1070
     8
1000
CMD_LINE@
1002
}
  0
LWPOLYLINE
  5
C4
330
1F
100
AcDbEntity
  8
0
  6
Continuous
 62
     5
420
      255
370
     0
100
AcDbPolyline
 90
        4
 70
   128
 43
0.0
 10
1068.403567749397
 20
-398.5806477615508
 10
1083.191467391784
 20
-398.5806477615508
 10
1077.867380767481
 20
-400.1745531122272
 10
1099.783579339282
 20
-400.1745531122272
1001
TCAD
1000
TCW_CUSTOM_DATA
1002
{
1000
#$AUX@_ToolInfo Properties
1070
     8
1000
CMD_POLYLINE@
1002
}
  0
LWPOLYLINE
  5
C5
330
1F
100
AcDbEntity
  8
0
  6
Continuous
 62
     5
420
      255
370
     0
100
AcDbPolyline
 90
        3
 70
   128
 43
0.0
 10
1068.392498960682
 20
-399.3776004368889
 10
1078.442957699669
 20
-399.3776004368889
 10
1075.874999079135
 20
-400.2188282608572
1001
TCAD
1000
TCW_CUSTOM_DATA
1002
{
1000
#$AUX@_ToolInfo Properties
1070
     8
1000
CMD_POLYLINE@
1002
}
  0
LWPOLYLINE
  5
C6
330
1F
100
AcDbEntity
  8
0
  6
Continuous
 62
     5
420
      255
370
     0
100
AcDbPolyline
 90
        3
 70
   128
 43
0.0
 10
1099.429378150242
 20
-398.5363726129208
 10
1085.482706331824
 20
-398.5363726129208
 10
1081.188016914723
 20
-399.9089022204477
1001
TCAD
1000
TCW_CUSTOM_DATA
1002
{
1000
#$AUX@_ToolInfo Properties
1070
     8
1000
CMD_POLYLINE@
1002
}
  0
LINE
  5
C7
330
1F
100
AcDbEntity
  8
0
  6
Continuous
 62
     5
420
      255
370
     0
100
AcDbLine
 10
1075.913138020288
 20
-400.1996643946864
 30
0.0
 11
1068.485108606336
 21
-400.1996643946864
 31
0.0
1001
TCAD
1000
TCW_CUSTOM_DATA
1002
{
1000
#$AUX@_ToolInfo Properties
1070
     8
1000
CMD_LINE@
1002
}
  0
MTEXT
  5
C9
330
1F
100
AcDbEntity
  8
0
  6
Continuous
 62
     5
420
      255
100
AcDbMText
 10
1088.589759027286
 20
-306.5899811209653
 30
0.0
 40
3.522528076171875
 41
76.72850462794304
 71
     1
 72
     1
  3
{1.:Hajуtest homlokfal\P2.: Hajуtest hбtfal\P3.: Bels\U+0151 keresztfal\P4.: Alsу fedйlzet tartу (2 db.)\P9.: Els\U+0151 biztonsбgi ъszуtest sablonja\P     (Papнr)\P10.: Motortartу lemez (#3 RL.)\P11.: tцnkcs\U+0151 tбmasz (#3 RL.)\P12.: Uszony fels\U+0151
  1
 rйsz (#3 RL.)\P13.: Kormбnycs\U+0151 er\U+0151sнtйs}
  7
_TCW_TXTSTY_9
 73
     1
 44
1.0
1001
TCAD
1000
TCW40_TEXT
1002
{
1000
Times New Roman
1070
     0
1070
   257
1002
}
1000
TCW_CUSTOM_DATA
1002
{
1000
#$AUX@_ToolInfo Properties
1070
     8
1000
CMD_TEXT@
1002
}
  0
INSERT
  5
CE
330
1F
100
AcDbEntity
  8
0
  6
Continuous
 62
     7
100
AcDbBlockReference
  2
*E5
 10
0.0
 20
0.0
 30
0.0
1001
TCAD
1000
TC25ExternalObject
1002
{
1000
TCW30CURVE
1000

1070
     0
1071
        0
1040
1.0
1040
0.0
1000
Continuous
1000
0
1071
       34
1071
      162
1010
1102.642914144608
1020
-269.5827323751148
1030
0.0
1071
     6274
1010
1103.534694819214
1020
-270.5122073637018
1030
0.0
1071
     6274
1010
1104.906670523438
1020
-271.9607142634562
1030
0.0
1071
      130
1010
1105.815685592257
1020
-272.8733413125127
1030
0.0
1071
     6274
1010
1106.926165548002
1020
-273.9882337711863
1030
0.0
1071
     6274
1010
1108.016560983139
1020
-275.125931317008
1030
0.0
1071
      130
1010
1109.185691771966
1020
-276.1791568983219
1030
0.0
1071
     6274
1010
1110.50059082098
1020
-277.3636995760978
1030
0.0
1071
     6274
1010
1111.885855856978
1020
-278.4682023307116
1030
0.0
1071
      130
1010
1113.261794484565
1020
-279.5812583749799
1030
0.0
1071
     6274
1010
1114.518009497859
1020
-280.5974648288233
1030
0.0
1071
     6274
1010
1115.800202605803
1020
-281.5812532970962
1030
0.0
1071
      130
1010
1117.081134821568
1020
-282.5661209912931
1030
0.0
1071
     6274
1010
1118.068362054879
1020
-283.3251683452062
1030
0.0
1071
     6274
1010
1119.07241377019
1020
-284.0620841176412
1030
0.0
1071
      130
1010
1120.065997437882
1020
-284.8127917777653
1030
0.0
1071
     6274
1010
1121.720278424976
1020
-286.0626929681653
1030
0.0
1071
     6274
1010
1123.362057680712
1020
-287.3292123859135
1030
0.0
1071
      130
1010
1125.024720815637
1020
-288.5679415208691
1030
0.0
1071
     6274
1010
1126.320290717659
1020
-289.5331762399738
1030
0.0
1071
     6274
1010
1127.63794592267
1020
-290.468425692547
1030
0.0
1071
      130
1010
1128.940347043489
1020
-291.4244229490692
1030
0.0
1071
     6274
1010
1131.237977232716
1020
-293.1109449600629
1030
0.0
1071
     6274
1010
1133.517227238292
1020
-294.8225712578945
1030
0.0
1071
      130
1010
1135.824788238221
1020
-296.495479866163
1030
0.0
1071
     6274
1010
1137.737905049128
1020
-297.8824289356298
1030
0.0
1071
     6274
1010
1139.659959316171
1020
-299.2574430832215
1030
0.0
1071
      130
1010
1141.601941689149
1020
-300.6036778757123
1030
0.0
1071
     6274
1010
1143.68818808044
1020
-302.0499203940498
1030
0.0
1071
     6274
1010
1145.784827280803
1020
-303.4819049606878
1030
0.0
1071
      130
1010
1147.908667536873
1020
-304.8723523684369
1030
0.0
1071
     6274
1010
1149.952377153583
1020
-306.2103394089525
1030
0.0
1071
     6274
1010
1156.452242017356
1020
-310.200525237008
1030
0.0
1071
      162
1010
1158.543642512213
1020
-311.4626671815352
1030
0.0
1070
     3
1071
-2147483635
1000
$SPLINESEGS
1070
    18
1070
    20
1000
$SPLFRAME
1070
    18
1070
     0
1000
$SPLINETYPE
1070
    18
1070
     1
1000
$SHOWCONTRPTS
1070
    18
1070
     1
1000
$CURVESMOOTH
1070
    18
1070
     1
1000
DEGREE
1070
    19
1071
        3
1000
RATIONAL
1070
    17
1070
 16640
1000
SPLINECLOSED
1070
    17
1070
 20480
1000
NPOINTS
1070
     3
1071
        0
1000
NKNOTS
1070
     3
1071
        0
1000
WEIGHTS
1070
  8204
1070
    12
1070
     8
1004
0000000000000000
1070
    16
1000
KNOTS
1070
  8204
1070
    12
1070
     8
1004
0000000000000000
1070
    16
1000
REALDEGREE
1070
    19
1071
        3
1002
}
1000
TCW_CUSTOM_DATA
1002
{
1000
#$AUX@_ToolInfo Properties
1070
     8
1000
CMD_BEZIER@
1002
}
  0
CIRCLE
  5
CF
330
1F
100
AcDbEntity
  8
0
  6
Continuous
 62
     7
370
     0
100
AcDbCircle
 10
1118.050509261974
 20
-250.9763382365929
 30
0.0
 40
1.451299638844944
1001
TCAD
1000
TCW_CUSTOM_DATA
1002
{
1000
#$AUX@_ToolInfo Properties
1070
     8
1000
CMD_CENTERPTCIRCLE@
1002
}
  0
CIRCLE
  5
D0
330
1F
100
AcDbEntity
  8
0
  6
Continuous
 62
     7
370
     0
100
AcDbCircle
 10
1120.129180127203
 20
-255.9839998240127
 30
0.0
 40
0.4977916693595716
1001
TCAD
1000
TCW_CUSTOM_DATA
1002
{
1000
#$AUX@_ToolInfo Properties
1070
     8
1000
CMD_CENTERPTCIRCLE@
1002
}
  0
CIRCLE
  5
D1
330
1F
100
AcDbEntity
  8
0
  6
Continuous
 62
     7
370
     0
100
AcDbCircle
 10
1115.203639953669
 20
-261.5300736797551
 30
0.0
 40
2.56253945749495
1001
TCAD
1000
TCW_CUSTOM_DATA
1002
{
1000
#$AUX@_ToolInfo Properties
1070
     8
1000
CMD_CENTERPTCIRCLE@
1002
}
  0
CIRCLE
  5
D2
330
1F
100
AcDbEntity
  8
0
  6
Continuous
 62
     7
370
     0
100
AcDbCircle
 10
1110.920034244053
 20
-256.9795831627317
 30
0.0
 40
0.4977916693594011
1001
TCAD
1000
TCW_CUSTOM_DATA
1002
{
1000
#$AUX@_ToolInfo Properties
1070
     8
1000
CMD_CENTERPTCIRCLE@
1002
}
  0
CIRCLE
  5
D3
330
1F
100
AcDbEntity
  8
0
  6
Continuous
 62
     7
370
     0
100
AcDbCircle
 10
1111.666721748092
 20
-251.0060831304176
 30
0.0
 40
1.669644016981294
1001
TCAD
1000
TCW_CUSTOM_DATA
1002
{
1000
#$AUX@_ToolInfo Properties
1070
     8
1000
CMD_CENTERPTCIRCLE@
1002
}
  0
CIRCLE
  5
D4
330
1F
100
AcDbEntity
  8
0
  6
Continuous
 62
     7
370
     0
100
AcDbCircle
 10
1126.256787494088
 20
-250.9763382365929
 30
0.0
 40
1.759959325111481
1001
TCAD
1000
TCW_CUSTOM_DATA
1002
{
1000
#$AUX@_ToolInfo Properties
1070
     8
1000
CMD_CENTERPTCIRCLE@
1002
}
  0
CIRCLE
  5
D5
330
1F
100
AcDbEntity
  8
0
  6
Continuous
 62
     7
370
     0
100
AcDbCircle
 10
1113.914515855108
 20
-254.6775612058075
 30
0.0
 40
1.451299638845114
1001
TCAD
1000
TCW_CUSTOM_DATA
1002
{
1000
#$AUX@_ToolInfo Properties
1070
     8
1000
CMD_CENTERPTCIRCLE@
1002
}
  0
CIRCLE
  5
D6
330
1F
100
AcDbEntity
  8
0
  6
Continuous
 62
     7
370
     0
100
AcDbCircle
 10
1115.656786697866
 20
-256.9176237179253
 30
0.0
 40
0.497791669359458
1001
TCAD
1000
TCW_CUSTOM_DATA
1002
{
1000
#$AUX@_ToolInfo Properties
1070
     8
1000
CMD_CENTERPTCIRCLE@
1002
}
  0
CIRCLE
  5
D7
330
1F
100
AcDbEntity
  8
0
  6
Continuous
 62
     7
370
     0
100
AcDbCircle
 10
1118.694138927238
 20
-254.0335791465959
 30
0.0
 40
0.4977916693596285
1001
TCAD
1000
TCW_CUSTOM_DATA
1002
{
1000
#$AUX@_ToolInfo Properties
1070
     8
1000
CMD_CENTERPTCIRCLE@
1002
}
  0
CIRCLE
  5
D8
330
1F
100
AcDbEntity
  8
0
  6
Continuous
 62
     7
370
     0
100
AcDbCircle
 10
1121.935691587508
 20
-252.7441046632233
 30
0.0
 40
1.451299638845106
1001
TCAD
1000
TCW_CUSTOM_DATA
1002
{
1000
#$AUX@_ToolInfo Properties
1070
     8
1000
CMD_CENTERPTCIRCLE@
1002
}
  0
CIRCLE
  5
D9
330
1F
100
AcDbEntity
  8
0
  6
Continuous
 62
     7
370
     0
100
AcDbCircle
 10
1123.164205721723
 20
-250.1859528362678
 30
0.0
 40
0.4977916693593236
1001
TCAD
1000
TCW_CUSTOM_DATA
1002
{
1000
#$AUX@_ToolInfo Properties
1070
     8
1000
CMD_CENTERPTCIRCLE@
1002
}
  0
CIRCLE
  5
DA
330
1F
100
AcDbEntity
  8
0
  6
Continuous
 62
     7
370
     0
100
AcDbCircle
 10
1116.703713985688
 20
-255.4089729815751
 30
0.0
 40
0.4977916693595716
1001
TCAD
1000
TCW_CUSTOM_DATA
1002
{
1000
#$AUX@_ToolInfo Properties
1070
     8
1000
CMD_CENTERPTCIRCLE@
1002
}
  0
CIRCLE
  5
DB
330
1F
100
AcDbEntity
  8
0
  6
Continuous
 62
     7
370
     0
100
AcDbCircle
 10
1110.809675527756
 20
-259.8584887189775
 30
0.0
 40
1.451299638844977
1001
TCAD
1000
TCW_CUSTOM_DATA
1002
{
1000
#$AUX@_ToolInfo Properties
1070
     8
1000
CMD_CENTERPTCIRCLE@
1002
}
  0
CIRCLE
  5
DC
330
1F
100
AcDbEntity
  8
0
  6
Continuous
 62
     7
370
     0
100
AcDbCircle
 10
1111.128242969063
 20
-262.67840051424
 30
0.0
 40
0.4977916693592932
1001
TCAD
1000
TCW_CUSTOM_DATA
1002
{
1000
#$AUX@_ToolInfo Properties
1070
     8
1000
CMD_CENTERPTCIRCLE@
1002
}
  0
CIRCLE
  5
DD
330
1F
100
AcDbEntity
  8
0
  6
Continuous
 62
     7
370
     0
100
AcDbCircle
 10
1129.474935820407
 20
-250.0108937386971
 30
0.0
 40
0.4977916693593443
1001
TCAD
1000
TCW_CUSTOM_DATA
1002
{
1000
#$AUX@_ToolInfo Properties
1070
     8
1000
CMD_CENTERPTCIRCLE@
1002
}
  0
CIRCLE
  5
DE
330
1F
100
AcDbEntity
  8
0
  6
Continuous
 62
     7
370
     0
100
AcDbCircle
 10
1110.433361150973
 20
-265.1131262026877
 30
0.0
 40
1.451299638845171
1001
TCAD
1000
TCW_CUSTOM_DATA
1002
{
1000
#$AUX@_ToolInfo Properties
1070
     8
1000
CMD_CENTERPTCIRCLE@
1002
}
  0
CIRCLE
  5
DF
330
1F
100
AcDbEntity
  8
0
  6
Continuous
 62
     7
370
     0
100
AcDbCircle
 10
1112.175631993731
 20
-267.3531887148054
 30
0.0
 40
0.4977916693593443
1001
TCAD
1000
TCW_CUSTOM_DATA
1002
{
1000
#$AUX@_ToolInfo Properties
1070
     8
1000
CMD_CENTERPTCIRCLE@
1002
}
  0
CIRCLE
  5
E0
330
1F
100
AcDbEntity
  8
0
  6
Continuous
 62
     7
370
     0
100
AcDbCircle
 10
1112.096934858284
 20
-275.5951729329337
 30
0.0
 40
1.451299638844984
1001
TCAD
1000
TCW_CUSTOM_DATA
1002
{
1000
#$AUX@_ToolInfo Properties
1070
     8
1000
CMD_CENTERPTCIRCLE@
1002
}
  0
CIRCLE
  5
E1
330
1F
100
AcDbEntity
  8
0
  6
Continuous
 62
     7
370
     0
100
AcDbCircle
 10
1114.832360935655
 20
-250.493615987645
 30
0.0
 40
0.4977916693595068
1001
TCAD
1000
TCW_CUSTOM_DATA
1002
{
1000
#$AUX@_ToolInfo Properties
1070
     8
1000
CMD_CENTERPTCIRCLE@
1002
}
  0
CIRCLE
  5
E2
330
1F
100
AcDbEntity
  8
0
  6
Continuous
 62
     7
370
     0
100
AcDbCircle
 10
1110.572793340337
 20
-270.2588109321168
 30
0.0
 40
2.562539457494857
1001
TCAD
1000
TCW_CUSTOM_DATA
1002
{
1000
#$AUX@_ToolInfo Properties
1070
     8
1000
CMD_CENTERPTCIRCLE@
1002
}
  0
CIRCLE
  5
E3
330
1F
100
AcDbEntity
  8
0
  6
Continuous
 62
     7
370
     0
100
AcDbCircle
 10
1124.121325643717
 20
-248.5090364343169
 30
0.0
 40
0.4977916693595716
1001
TCAD
1000
TCW_CUSTOM_DATA
1002
{
1000
#$AUX@_ToolInfo Properties
1070
     8
1000
CMD_CENTERPTCIRCLE@
1002
}
  0
TEXT
  5
E4
330
1F
100
AcDbEntity
  8
0
  6
Continuous
 62
     5
420
      255
100
AcDbText
 10
1124.257120442106
 20
-265.0946842507144
 30
0.0
 40
5.012131690979004
  1
9.
  7
_TCW_TXTSTY_9
 11
1124.257120442106
 21
-260.0825525597353
 31
0.0
100
AcDbText
 73
     3
1001
TCAD
1000
TCW40_TEXT
1002
{
1000
Times New Roman
1070
     0
1070
   257
1002
}
1000
TCW_CUSTOM_DATA
1002
{
1000
#$AUX@_ToolInfo Properties
1070
     8
1000
CMD_TEXT@
1002
}
  0
CIRCLE
  5
E5
330
1F
100
AcDbEntity
  8
0
  6
Continuous
 62
     5
420
      255
370
     0
100
AcDbCircle
 10
1126.900417165916
 20
-262.8834870515039
 30
0.0
 40
5.862654945854445
1001
TCAD
1000
TCW_CUSTOM_DATA
1002
{
1000
#$AUX@_ToolInfo Properties
1070
     8
1000
CMD_CENTERPTCIRCLE@
1002
}
  0
LINE
  5
E6
330
1F
100
AcDbEntity
  8
0
  6
Continuous
 62
     7
370
     0
100
AcDbLine
 10
1102.638831519844
 20
-242.5837853227112
 30
0.0
 11
1102.638831519844
 21
-269.6033866253385
 31
0.0
1001
TCAD
1000
TCW_CUSTOM_DATA
1002
{
1000
#$AUX@_ToolInfo Properties
1070
     8
1000
CMD_LINE@
1002
}
  0
LINE
  5
E7
330
1F
100
AcDbEntity
  8
0
  6
Continuous
 62
     7
370
     0
100
AcDbLine
 10
1158.531157164557
 20
-311.4626671927408
 30
0.0
 11
1158.531157164557
 21
-243.9163839840973
 31
0.0
1001
TCAD
1000
TCW_CUSTOM_DATA
1002
{
1000
#$AUX@_ToolInfo Properties
1070
     8
1000
CMD_LINE@
1002
}
  0
LINE
  5
E8
330
1F
100
AcDbEntity
  8
0
  6
Continuous
 62
     7
370
     0
100
AcDbLine
 10
1102.638819600335
 20
-242.5842655722582
 30
0.0
 11
1158.531163901132
 21
-243.9065678866755
 31
0.0
1001
TCAD
1000
TCW_CUSTOM_DATA
1002
{
1000
#$AUX@_ToolInfo Properties
1070
     8
1000
CMD_LINE@
1002
}
  0
LINE
  5
E9
330
1F
100
AcDbEntity
  8
0
  6
HIDDEN
 62
     7
370
     0
100
AcDbLine
 10
1107.646839127094
 20
-247.6978496302777
 30
0.0
 11
1107.646839127094
 21
-274.6900687172183
 31
0.0
1001
TCAD
1000
TCW_CUSTOM_DATA
1002
{
1000
#$AUX@_ToolInfo Properties
1070
     8
1000
CMD_LINE@
1002
}
  0
LINE
  5
EA
330
1F
100
AcDbEntity
  8
0
  6
HIDDEN
 62
     7
370
     0
100
AcDbLine
 10
1107.646839127094
 20
-247.6978496298835
 30
0.0
 11
1153.530594561627
 21
-248.8040881171663
 31
0.0
1001
TCAD
1000
TCW_CUSTOM_DATA
1002
{
1000
#$AUX@_ToolInfo Properties
1070
     8
1000
CMD_LINE@
1002
}
  0
LINE
  5
EB
330
1F
100
AcDbEntity
  8
0
  6
HIDDEN
 62
     7
370
     0
100
AcDbLine
 10
1153.530594561627
 20
-248.8040881171663
 30
0.0
 11
1153.530594561627
 21
-308.4403992897107
 31
0.0
1001
TCAD
1000
TCW_CUSTOM_DATA
1002
{
1000
#$AUX@_ToolInfo Properties
1070
     8
1000
CMD_LINE@
1002
}
  0
TEXT
  5
ED
330
1F
100
AcDbEntity
  8
0
  6
Continuous
 62
     5
420
      255
100
AcDbText
 10
1117.891038547252
 20
-274.6802308806845
 30
0.0
 40
3.522528076171875
  1
Hossza 146 mm
  7
_TCW_TXTSTY_A
 11
1117.891038547252
 21
-271.1577028045127
 31
0.0
100
AcDbText
 73
     3
1001
TCAD
1000
TCW40_TEXT
1002
{
1000
Times New Roman
1070
     0
1070
   257
1002
}
1000
TCW_CUSTOM_DATA
1002
{
1000
#$AUX@_ToolInfo Properties
1070
     8
1000
CMD_TEXT@
1002
}
  0
LWPOLYLINE
  5
EE
330
1F
100
AcDbEntity
  8
0
  6
Continuous
 62
     7
370
     0
100
AcDbPolyline
 90
        4
 70
   129
 43
0.0
 10
1105.354341063779
 20
-369.5431852965858
 10
1167.877478825133
 20
-369.5431852965858
 10
1167.877478825133
 20
-406.2033383614764
 10
1105.354341063779
 20
-406.2033383614764
1001
TCAD
1000
TCW_CUSTOM_DATA
1002
{
1000
#$AUX@_ToolInfo Properties
1070
     8
1000
CMD_RECTANGLE@
1002
}
  0
LINE
  5
EF
330
1F
100
AcDbEntity
  8
0
  6
Continuous
 62
     7
370
     0
100
AcDbLine
 10
1107.363116574184
 20
-376.1972541748023
 30
0.0
 11
1165.868703314728
 21
-376.1972541748023
 31
0.0
1001
TCAD
1000
TCW_CUSTOM_DATA
1002
{
1000
#$AUX@_ToolInfo Properties
1070
     8
1000
CMD_LINE@
1002
}
  0
ENDSEC
  0
SECTION
  2
OBJECTS
  0
DICTIONARY
  5
C
330
0
100
AcDbDictionary
281
     1
  3
ACAD_GROUP
350
D
  3
ACAD_LAYOUT
350
1A
  3
ACAD_MLINESTYLE
350
17
  3
ACAD_PLOTSETTINGS
350
19
  3
ACAD_PLOTSTYLENAME
350
E
  0
DICTIONARY
  5
D
102
{ACAD_REACTORS
330
C
102
}
330
C
100
AcDbDictionary
281
     1
  0
DICTIONARY
  5
1A
102
{ACAD_REACTORS
330
C
102
}
330
C
100
AcDbDictionary
281
     1
  3
Model
350
22
  3
Paper 1
350
1E
  0
DICTIONARY
  5
17
102
{ACAD_REACTORS
330
C
102
}
330
C
100
AcDbDictionary
281
     1
  3
Standard
350
18
  0
DICTIONARY
  5
19
102
{ACAD_REACTORS
330
C
102
}
330
C
100
AcDbDictionary
281
     1
  0
ACDBDICTIONARYWDFLT
  5
E
102
{ACAD_REACTORS
330
C
102
}
330
C
100
AcDbDictionary
281
     1
  3
Normal
350
F
100
AcDbDictionaryWithDefault
340
F
  0
LAYOUT
  5
22
102
{ACAD_REACTORS
330
1A
102
}
330
1A
100
AcDbPlotSettings
  1

  2
none_device
  4

  6

 40
7.0
 41
7.0
 42
7.0
 43
7.0
 44
297.0
 45
210.0
 46
-892.291713504535
 47
411.0463740669235
 48
0.0
 49
0.0
140
0.0
141
0.0
142
1.0
143
1.0
 70
  1712
 72
     1
 73
     0
 74
     0
  7

 75
     0
 76
     0
 77
     2
 78
   300
147
1.0
148
0.0
149
0.0
100
AcDbLayout
  1
Model
 70
     1
 71
     0
 10
885.291713504535
 20
-418.0463740669235
 11
1182.291713504535
 21
-208.0463740669235
 12
0.0
 22
0.0
 32
0.0
 14
885.291713504535
 24
-418.0463740669235
 34
0.0
 15
1182.291713504535
 25
-208.0463740669235
 35
0.0
146
0.0
 13
0.0
 23
0.0
 33
0.0
 16
1.0
 26
0.0
 36
0.0
 17
0.0
 27
1.0
 37
0.0
 76
     0
330
1F
  0
LAYOUT
  5
1E
102
{ACAD_REACTORS
330
1A
102
}
330
1A
100
AcDbPlotSettings
  1

  2
none_device
  4

  6

 40
7.0
 41
7.0
 42
7.0
 43
7.0
 44
297.0
 45
210.0
 46
-7.0
 47
-7.0
 48
0.0
 49
0.0
140
0.0
141
0.0
142
1.0
143
1.0
 70
   688
 72
     1
 73
     0
 74
     5
  7

 75
    16
 76
     0
 77
     2
 78
   300
147
1.0
148
0.0
149
0.0
100
AcDbLayout
  1
Paper 1
 70
     1
 71
     1
 10
0.0
 20
0.0
 11
297.0
 21
210.0
 12
0.0
 22
0.0
 32
0.0
 14
0.0
 24
0.0
 34
0.0
 15
297.0
 25
210.0
 35
0.0
146
0.0
 13
0.0
 23
0.0
 33
0.0
 16
1.0
 26
0.0
 36
0.0
 17
0.0
 27
1.0
 37
0.0
 76
     0
330
1B
  0
MLINESTYLE
  5
18
102
{ACAD_REACTORS
330
17
102
}
330
17
100
AcDbMlineStyle
  2
Standard
 70
     0
  3

 62
   256
 51
90.0
 52
90.0
 71
     5
 49
0.5
 62
   256
  6
BYLAYER
 49
-0.5
 62
   256
  6
BYLAYER
 49
0.25
 62
     7
  6
BYLAYER
 49
0.0
 62
     7
  6
BYLAYER
 49
-0.25
 62
     7
  6
BYLAYER
  0
ACDBPLACEHOLDER
  5
F
102
{ACAD_REACTORS
330
E
102
}
330
E
  0
ENDSEC
  0
SECTION
  2
THUMBNAILIMAGE
 90
    16364
310
28000000B40000005500000001000800000000000000000000000000000000000000000000000000FFFFFF000000FF0000FFFF0000FF0000FFFF0000FF000000FF00FF000000000080808000C0C0C0000000FF007F7FFF000000A5005252A50000007F003F3F7F0000004C0026264C000000260013132600003FFF007F9FFF
310
000029A5005267A500001F7F003F4F7F0000134C00262F4C000009260013172600007FFF007FBFFF000052A500527CA500003F7F003F5F7F0000264C0026394C0000132600131C260000BFFF007FDFFF00007CA5005291A500005F7F003F6F7F0000394C0026424C00001C26001321260000FFFF007FFFFF0000A5A50052A5
310
A500007F7F003F7F7F00004C4C00264C4C00002626001326260000FFBF007FFFDF0000A57C0052A59100007F5F003F7F6F00004C3900264C420000261C001326210000FF7F007FFFBF0000A5520052A57C00007F3F003F7F5F00004C2600264C39000026130013261C0000FF3F007FFF9F0000A5290052A56700007F1F003F
310
7F4F00004C1300264C2F00002609001326170000FF00007FFF7F0000A5000052A55200007F00003F7F3F00004C0000264C260000260000132613003FFF00009FFF7F0029A5000067A552001F7F00004F7F3F00134C00002F4C260009260000172613007FFF0000BFFF7F0052A500007CA552003F7F00005F7F3F00264C0000
310
394C2600132600001C261300BFFF0000DFFF7F007CA5000091A552005F7F00006F7F3F00394C0000424C26001C26000021261300FFFF0000FFFF7F00A5A50000A5A552007F7F00007F7F3F004C4C00004C4C26002626000026261300FFBF0000FFDF7F00A57C0000A59152007F5F00007F6F3F004C3900004C422600261C00
310
0026211300FF7F0000FFBF7F00A5520000A57C52007F3F00007F5F3F004C2600004C39260026130000261C1300FF3F0000FF9F7F00A5290000A56752007F1F00007F4F3F004C1300004C2F26002609000026171300FF000000FF7F7F00A5000000A55252007F0000007F3F3F004C0000004C2626002600000026131300FF00
310
3F00FF7F9F00A5002900A55267007F001F007F3F4F004C0013004C262F002600090026131700FF007F00FF7FBF00A5005200A5527C007F003F007F3F5F004C0026004C2639002600130026131C00FF00BF00FF7FDF00A5007C00A55291007F005F007F3F6F004C0039004C26420026001C0026132100FF00FF00FF7FFF00A5
310
00A500A552A5007F007F007F3F7F004C004C004C264C002600260026132600BF00FF00DF7FFF007C00A5009152A5005F007F006F3F7F0039004C0042264C001C002600211326007F00FF00BF7FFF005200A5007C52A5003F007F005F3F7F0026004C0039264C00130026001C1326003F00FF009F7FFF002900A5006752A500
310
1F007F004F3F7F0013004C002F264C000900260017132600000000002D2D2D005B5B5B0089898900B7B7B700B3B3B30000000000000000000000000000000000000000000000000000000000000007070707070707070707070707070707070707070707070707070707070707070707070707070707070707070707070707
310
07070707070707070707070707070707070707070707070707070707070707070707070707070707070707070707070707070707070707070707070707070707070707070707070700000000000000000000000000000000000000000000000000000000000000000000000000000000000000000000000000000000000000
310
00000000070000000000000000000000000000000000000000000000000000000000000000000000000000000000000000000000000000000000000000000000000000000000000000000000000000000000000000000000000000000000000707070707070707070707070707070707070707070707070707070700070000
310
00000000000000000000000000000000000000000000000000000000000000000000000000000000000000000000000000000000000000000007000000000000000000000000000000000000000000000000000000000000000000000000000000000000000000000000000000000000000000000000000000000000000000
310
00000000000000000000000000000000000000000007070707070007070707070707070707070707070700000000000007000700000000000000000000000000000000000000000000000000000000000000000000000000000000000000000000000000000000000000000000000700000000000000000000000000000000
310
00000000000000000000000000000000000000000000000000000000000000000000000000050505050505050505050505050500000000000000000000000000000000000000000000000707000707070707070707070707070707070707070000000000000700070000000000000000000000000000000000000000000000
310
00000000000000000000000000000000000000000000000000000000000000000000000007000000070707070707070707070707070707070707070707070707070707070707070707070707070707070707070707070707070707070707070705050505050505050000000000000005050505050505050505050505050000
310
07070707070707070707070707070707070000000000000000000007000700000000000000000000000000000000000000000000000000000000000000000000000000000000000000000000000000000000000000000000000700000007050505050505050505000000000000000000000000000000000000000000000000
310
00000000000000000000000000000000000000000000000000000000000700000000000000050505050505050505050505050500000707070707070707070707070707070707070000000000000000000700070000000000000000000000000000000000000000000000000000000000000000000000000000000000000000
310
00000000000000000000000000000007000000070000050000000000050505050505050000000000000000000000000000000000000000000000000000000000000000000000000000000000000000000000070000000000000000000000000707070707070707070700070707000000000707000007070707000000000000
310
00000000000007000700000000000000000000000000000000000000000000000000000000000000000000000000000000000000000000000000000000000000000000000700000007000500050500000000000000000005050505050000000000000000000000000000000000000000000000000000000000000000000000
310
00000000000000000700000707070707070707070700000000000505000007000707070707000707070707070707070707070707070000000000000700070000000000000000000000000000000000000000000000000000000000000000000000000000000000000000000000000000000000000000000000070000000700
310
05050505000000000700000000000000000505050505000000000000000000000000000000000000000000000000000000000000000000000000000000070000000007070707000000000000000005050505050700070707070707070707070707070707070707070707000000000000070007000000000000000000000000
310
00000000000000000000000000000000000000000000000000000000000000000000000000000000000000000000000700000007050500050500000007070000000000000000000000000505050500000000000000000000000000000000000000000000000000000000000000000000000007000000000000000707070000
310
00000005000505050507000707070007000000070000000000000007070707000000000000000700070000000000000000000000000000000000000000000000000000000000000000000000000000000000000000000000000000000000000000000000070000000700050005050000000700070000000000000000000000
310
00000000050505050000000000050500000000000000000000000000000000000000000000000000070000000000000000000707070700000005050505050700070707070707000000000000000000000000000000000000000000070007000000000000000000000000000000000000000000000000000000000000000000
310
00000000000000000000000000000000000000000000000000000700000007000005050707070707000707070707070707070707070700000000000005050505000005050000000000000000000000000000000000000000000000000007000000000000000000000000070707000500000505070007070707070700000000
310
00000000000000000000000000000000000700070000000000000000000000000000000000000000000000000000000000000000000000000000000000000000000000000000000000000000000000070000000707070707000000000000000000000000000000000000070000070000000000000005050505000000000000
310
00000000000000000000000000000000000000070000000000000000000000000000000707050500000700070707070707070707070707070707070707070707070707070700070007000000000000000000000000000000000000000000000000000000000000000000000000000000000000000000000000000000000000
310
00000000000700000000000000000000000000000000000000000000000000000007070700000000000000000005050505000000000000000000000000000007070707070707070707000000000000000000000000000000000007070707070007070707070707070707070707070707070707070707070707070007000700
310
00000000000000000000000000000000000000000000000000000000000000000000000000000000000000000000000000000000000000000000070000000000000000000000000000000000000000000000000000000700000000000000000007070505070707070707070707070707070707070000000000000000000000
310
00000000000000000000000000000000000000000700070707070707070707070707070707070707070707070707070707070007000000000000000000000000000000000000000000000000000000000000000000000000000000000000000000000000000000000000000000000007000000000000000000000000000000
310
00000000000000000000000007070707070707070707000000000000000000000000000000000000000000000000000000000000000000000000000000000000000000000000000000000007070707070707070707070700000707070707070707070707070007000700000000000000000000000000000000000000000000
310
00000000000000000000000000000000000000000000000000000000000000000000000000070000000000000000000000000000000000000000000000000000000000000000000000000000000000000000000000000000000000000000000000000000000000000000000000000000000000000000000000000000000000
310
00070707070707070707070707000007070707070707070707070700070007000000000000000000000000000000000000000000000000000000000000000000000000000000000000000000000000000000000000000000000007000000000000000000000000000000000000000000000000000000000000000000000000
310
00000000000000000000000000000000000000000000000000000000000000000000000000000000000000000000000000000000000007070707070707070707070707070707070707070707070707070707000700000000000000000000000000000000000000000000000000000000000000000000000000000000000000
310
00000000000000000000000000000000070000000000000000000000000000000000000000000000000000000000000000000000000000000000000000000000000000000000000000000000000000000000000000000000000000000000000000000000000000000000000000000000000000000000000000000000000000
310
00000000000000000007000000000000000000000000000000000000000000000000000000000000000000000000000000000000000000000000000000000000000000000007070707070707070707070707070707070707070707070707070707070707070707070707070707070707070707070707070707070707070707
310
07070707070707070707070707070000000000000000000000000000000000000000000000050000000000000000000000000000000000000000000000000700000000000000000000000000000000000000000000000000000000000000000000000000000000000000000000000000000000000000000000000707000000
310
00000000000000000000000000000000000000000000000000000000000000000000000000000000000000000000000000000000000000000000000000000000000007000000000000000000000000050505050505050505050505050505050505050505050505000000000000000000000000070000000000000000000000
310
00000000000000000000000000000000000000000000000000000000000000000000000000000000000000000000000007070007070707070707070707070707070707070707070707070707070707070707070707070707070707070707070707070707070707070707070707070707070707070707000700000000000000
310
00000000000505050505050505050505050505050505050505050505050000000000000000000000000700000000000000000000000000000000000000000000000000000000000000000000000000000000000000000000000000000000000000000000000707000700000000000000000000000000000000000000000000
310
00000000000000000000000000000000000000000000000000000000000000000000000000000005050000070007000000000000000000000000050505050505050505050505050505050505050505050505050505050500000000000000070000000000000000000000000000000000000000000000000000000000000000
310
00000000000000000000000000000000000000000000000000000007070007000000000000000000000000000000000000000000000000000000000000000000000000000000000000000000000000000000000000000000000000050505050507000700000000000000000000000005050505050505050505050505050505
310
05050505050505050505050505000000000000000700000000000000000000000000000000000000000000000000000000000000000000000000000000000000000000000000000000000000000000000707000700000000000000000000000000000000000000000000000000000000000000000000000000000000000000
310
00000000000000000000000000000500000505050505070007000000000000000000000000050500050505000000000005050505050005050500050505050505050000000000000000070000000000000000000000000000000000000000000000000000000000000000000000000000000000000000000000000000000000
310
00000000000007070007000000000000000000000000000000000000000000000000000000000000000000000000000000000000000000000000000000000000000005050505050505000507000700000000000000000000000005050505050505050505050505050505050505050505050505050500000000000000000007
310
00000000000000000000000000000000000000000000000000000000000000000000000000000000000000000000000000000000000000000000000707000700000000000000000000000000000000000000000000000000000000000000000000000000000000000000000000000000000000000000000000000005050505
310
05070007000000000000000000000000050505050505050505050505050505050505050505050505050505000000000000000000070000000000000000000000000000000000000000000000000000000000000000000000000000000000000000000000000000000000000000000000070700070000000000000000000000
310
00000000000000000000000000000000000000000000000000000000000000000000000000000000000000000000000000000505000007000700000000000000000000000005050505050505050505050505050505050505050505050505050505000000000000000007000000000000000000000000000000000000000000
310
00000000000000000000000000000000000000000000000000000000000000000000000000000707000700000000000000000000000000000000000000000000000000000000000000000000000000000000000000000000000000000000000000000000000000000000000700070000000000000000000000000505050505
310
05050505050505050505050505050505050505050505050000000000000000070000000000000000000000000000000000000000000000000000000000000000000000000000000000000000000000000000000000000000000000070700070000000000000000000000000000000000000000000000000000000000000000
310
00000000000000000000000000000000000000000000000000000000000000000007000700000000000000000000000005050005050505050005000005000500000000000505050505050005000000000000000007000000000000000000000000000000000000000000000000000000000000000000000000000000000000
310
00000000000000000000000000000000000707000700000000000000000000000000000000000000000000000000000000000000000000000000000000000000000000000000050505050505050505050505050500000700070000000000000000000000000000000505050505050500000000000000000000000000000000
310
00000000000000000000070000000000000000000000000000000000000000000000000000000000000000000000000000000000000000000000000000000000000000000000070700070000000000000000000000000000000000000000000000000000000000000000000000000000000000000000000000000005050505
310
05050505050505050505000007000700000000000000000000000000000005050505050505000000000000000000000000000000000000000000000000000007000000000000000000000000000000000000000000000000000000000000000000000000000000000000000000000000000000000000000000000007070007
310
00000000000000000000000000000000000000000000000000000000000000000000000000000000000000000000000000000000000000000000000000000000000700070000000000000000000000000505050505050505050505050505050505050505050505050505050505050505050000000700000000000000000000
310
00000000000000000000000000000000000000000000000000000000000000000000000000000000000000000000000000070700070000000000000000000000000000000000000000000000000000000000000000000000000000000000000000000000000000000000000000000000000000000000070007000000000000
310
00000000000005050505050505050505050505050505050505050505050505050505050505050500000007000000000000000000000000000000000000000000000000000000000000000000000000000000000000000000000000000000000000000000000007070007000000000000000000000000000000000000000000
310
00000000000000000000000000000000000000000000000000000000000000000000000000000000000000000700070000000000000000000000000505050505000005050505000000050500000000000500000500000505000000000000000700000000000000000000000000000000000000000000000000000000000000
310
00000000000000000000000000000000000000000000000000000000070700070000000000000000000000000000000000000000000000000000000000000000000000000000000000000000000000000000000000000000000000000000000000070007000000000000000000000000050500050505050505050505050505
310
05050505050505050505050500000000000000000007000000000000000000000000000000000000000000000000000000000000000000000000000000000000000000000000000000000000000000000007070007000000000000000000000000000000000000000000000000000000000000000000000000000000000000
310
00000000000000000000000000000000000000000000000700070000000000000000000000000505000505050505050505050505050505050505050505050505050000000000000000000700000000000000000000000000000000000000000000000000000000000000000000000000000000000000000000000000000000
310
00000000000000070707070707070707070707070707070707070707070707070707070707070707070707070707070707070707070707070707070707070707070707070707070707070707070707000000000000000000000000050000050505000005000500050000000000000005050005050500000000000000000000
310
07000000000000000000000000000000000000000000000000000000000000000000000000000000000000000000000000000000000000000000000007000000000000000000000000000000000000000000000000000000000000000000000000000000000000000000000000000000000000000000000000000000000000
310
00000000000000000000000000000000000505050505050505050505050505050505050000000000000000000000000000000000000700000000000000000000000000000000000000000000000000000000000000000000000000000000000000000000000000000000000000000000000707070707070707070707070707
310
07070707070707070707070707070707070707070707070707070707070707070707070707070707070707070707070707070700000000000000000000000000000000000000050505050505050505050505050505050505000000000000000000000000000000000000070000000000000000000000000000000000000000
310
00000000000000000000000000000000000000000000000000000000000000000000000000000007070000000000000000000000000000000000000000000000000000000000000000000000000000000000000000000000000000000000000000000000000000070000000000000000000000000000000000000005050505
310
05050505050505050505050505000000000000000000000000000000000000000700000000000000000000000000000000000000000000000000000000000000000000000000000000000000000000000000000000000000000000000707070707070707070707070707070707070707070707070707070707070707070707
310
07070707070707070707070707070707070707070707070707070707070700000000000000000000000000000000000000050505050505050505050505050505050500000000000000000000000000000000000000070000000000000000000000000000000000000000000000000000000000000000000000000000000000
310
00000000000000000000000000000000000007070000000000000000000000000000000000000000000000000000000000000000000000000000000000000000000000000000000000000000000005000000070000000000000000000000000000000000000005000005050505000000000505050505050000000000000000
310
00000000000700000000000700000000000000000000000000000000000000000000000000000000000000000000000000000000000000000000000000000000000000000000000707000000000000000000000000000000000000000000000000000000000000000000000000000000000000000000000000000000000000
310
00000005050500000700000000000000000000000000000505000000050505050505050505050505050505050505050500000000000000000707070000000000070000000000000000000000000000000000000000000000000000000000000000000000000000000000000000000000000000000000000000000000070700
310
00000000000000000000000000000000000000000000000000000000000000000000000000000000000000000000000000000000000000050505000500070000000000000707070700000005050505050005050505050505050505050505050505050505050000000000000707070007000000000007000000000000000000
310
00000000000000000000000000000000000000000000000000000000000000000000000000000000000000000000000000000707000000000000000000000000000000000000000000000000000000000000000000000000000000000000000000000000000000000000000005050500050007000000000007000000050707
310
05000505050500000000000000000000000000000000000000000000000000000707000700070000000000070000000000000000000000000000000000000000000000000000000000000000000000000000000000000000000000000000000000000000000000070700000000000000000000000000000000000000000000
310
00000000000000000000000000000000000000000000000000000000000000000000000505050500070000000000070000000500000705050505050000000000000000000000000000000000000000000000000707000000070007000000000007000000000000000000000000000000000000000000000000000000000000
310
00000000000000000000000000000000000000000000000000000000000707000000000000000000000000000000000000000000000000000000000000000000000000000000000000000000000000000000000000000000000000000007000000000700000000070000070005050505000000000000000000000000000000
310
00000000000000000707000000000700070000000000070000000000000000000000000000000000000000000000000000000000000000000000000000000000000000000000000000000000000000000000070700000000000000000000000000000000000000000000000000000000000000000000000000000000000000
310
00050505050505050505050505050500000000070000000007050505070705050705000000000000000000000000000000000000000000000000000707070000000000070007000000000007000000000000000000000000000000000000000000000000000000000000000000000000000000000000000000000000000000
310
00000000000000000707000000000000000000000000000000000000000000000000000000000000000000000000000000000000000000000000000000000000000000000000000007000000000007000000070000070000000000000000000000000000000000000000000000000007070000000000000007000700000000
310
00070000000000000000000000000000000000000000000000000000000000000000000000000000000000000000000000000000000000000000000000070700000000000000000000000000000000000000000000000000000000000000000000000000000000000000000000000000000000000000000000000000000700
310
00000000070000000500000700000000000000000000000000000000000000000000000007070000000000000000070007000000000007000000000000000000000000000000000000000000000000000000000000000000000000000000000000000000000000000000000000000000000007070707070707070707070707
310
07070707070707070707070707070707070707070707070707070707070707070707070707070707070707070707070707070707000000000000070700050707000000000000000000000000000000000000000000000007070700000000000000000007000700000000000700000000000000000000000000000000000000
310
00000000000000000000000000000000000000000000000000000000000000000000000000000000070700000000000000000000000000000000000000000000000000000000000000000000000000000000000000000000000000000000000000000000000000000000000000000000000707000000000000000000000000
310
00000000000000000000000007070000000000000000000000070007000000000007000000000000000000000000000000000000000000000000000000000000000000000000000000000000000000000000000000000000000000000007070707070707070707070707070707070707070707070707070707070707070707
310
07070707070707070707070707070707070707070707070707070707070707000000000000000000000000000000000000000000000000000000000000000000070700000000000000000000000007000700000000000700000000000000000000000000000000000000000000000000000000000000000000000000000000
310
00000000000000000000000000000000000000070700000000000000000000000000000000000000000000000000000000000000000000000000000000000000000000000000000000000000000505000000000700000000000000000000000000000000000000000000000000000000000000070700000000000000000000
310
00000000070007000000000007000000000000000000000000000000000000000000000000000000000000000000000000000000000000000000000000000000000000000000000007070000000000000000000000000000000000000000000000000000000000000000000000000000000000000000000000000000000000
310
00000505050505000007000000000000000000000000000000000000000000000000000000000000070700000000000000000000000000000007000700000000000700000000000000000000000000000000000000000000000000000000000000000000000000000000000000000000000000000000000000000000000707
310
00000000000000000000000000000000000000000000000000000000000000000000000000000000000000000000000000000000000000050505050500000700000000000000000000000000000000050500000000000000000000000707000000000000000000000000000000000700070000000000070000000000000000
310
00000000000000000000000000000000000000000000000000000000000000000000000000000000000000000000000000000007070000000000000000000000000000000000000000000000000000000000000000000000000000000000000000000000000000000000000505050500050000070000000007070707070707
310
07070707070505000000000000000000070707000000000000000000000000000000000007000700000000000700000000000000000000000000000000000000000000000000000000000000000000000000000000000000000000000000000000000000000000000707000000000000000000000000000000000000000000
310
00000000000000000000000000000000000000000000000000000000000000000000050500050500000700000000070000000007070505000007050500000000000000000707070700050505050505050505050505050505050700070000000000070000000000000000000000000000000000000000000000000000000000
310
00000000000000000000000000000000000000000000000000000000000007070000000000000000000000000000000000000000000000000000000000000000000000000000000000000000000000000000000000000000050500000000070000000007000000000500050005050705050000000000000007070707000005
310
05050505050505050505050505050507000700000000000700000000000000000000000000000000000000000000000000000000000000000000000000000000000000000000000000000000000000000000000707000000000000000000000000000000000000000000000000000000000000000000000000000000000000
310
00000000000000000000000000000000000000000700000000070000000005050505050507050500000000000000070007000700050505000000000005050505000000000700070000000000070000000000000000000000000000000000000000000000000000000000000000000000000000000000000000000000000000
310
00000000000000000007070000000000000000000000000000000000000000000000000000000000000000000000000000000000000000000005050505050505050505050505050000070000000007000000000505050505050705050000000000000007000707070000000005050000000000000000000000070007000000
310
00000700000000000000000000000000000000000000000000000000000000000000000000000000000000000000000000000000000000000000000000000707000000000000000000000000000000000000000000000000000000000000000000000000000000000000000000000505050505050505050505050505000007
310
00000000070000000005050505050507050500000000000000070007070000000005050505050000000000000000000700070000000000070000000000000000000000000000000000000000000000000000000000000000000000000000000000000000000000000000000000000000000000070700000000000000000000
310
00000000000000000000000000000000000000000000000000000000000000000000000000000000000000000000000000000000070000000007000000000500050500000705050000000000000007000707070700000505050505000000000000000000070007000000000007000000000000000000000000000000000000
310
00000000000000000000000000000000000000000000000000000000000000000000000000000000000707000000000000000000000000000000000000000000000000000000000000000000000000000000000000000000000000000000000000000000000000000007000000000700000000050000000000070505000000
310
00000000070007070700070005050505050000000000000000000700070000000000070000000000000000000000000000000000000000000000000000000000000000000000000000000000000000000000000000000000000000000000070700000000000000000000000000000000000000000000000000000000000000
310
00000000000000000000000000000000000000000000000000000000000000070000000007000500000700000005000705050000000000000007000707070700000005000505000000000000000000070007000000000007000000000000000000000000000000000000000000000000000000000000000000000000000000
310
00000000000000000000000000000000000000000707000000000000000000000000000000000000000000000000000000000000000000000000000000000000000000000000000000000000000000000000000007000000000700070707050707070700070505000000000000000700070707070707000505000000000000
310
00000000000700070000000000070000000000000000000000000000000000000000000000000000000000000000000000000000000000000000000000000000000000000000000000070700000000000000000000000000000000000000000000000000000000000000000000000000000000000000000000000000000000
310
00000000000000000000070000000007000000000707000000070005050000000000000007000700070707070700000000000000000000000000070007000000000007000000000000000000000000000000000000000000000000000000000000000000000000000000000000000000000000000000000000000000000007
310
07000000000000000000000000000000000000000000000000000000000000000000000000000000000000000000000000000000000000000000000000000007000000000007000000000000000007000505000000000000000700070707070707070707000000000000000000000007000700000000000700000000000000
310
00000000000000000000000000000000000000000000000000000000000000000000000000000000000000000000000000000000070700000000000000000000000000000000000000000000000000000000000000000000000000000000000000000000000000000000000000000000000000000700000000000700000000
310
00000007000005050000000000000007000700070700070707070707070707070707070707070007000000000007000000000000000000000000000000000000000000000000000000000000000000000000000000000000000000000000000000000000000000000007070000000000000000000000000000000000000000
310
00000000000000000000000000000000000000000000000000000000000000000000000000000000000007000000000000070700000000070700000505000000000000000700070707070707070707070700000000000000000000000700000000000700000000000000000000000000000000000000000000000000000000
310
00000000000000000000000000000000000000000000000000000000000000070700000000000000000000000000000000000000000000000000000000000000000000000000000000000000000000000000000000000000000000000000000700000000000000000707070700000000000000000000000000070000000000
310
00000000000000070707070707070707070707000000000007000000000000000000000000000000000000000000000000000000000000000000000000000000000000000000000000000000000000000000000007070000000000000000000000000000000000000000000000000000000000000000000000000000000000
310
00000000000000000000000000000000000000000007000000000000000000000000000000000000000000000000000707070707070707070707070700000000000000000000000000000000000700000000000000000000000000000000000000000000000000000000000000000000000000000000000000000000000000
310
00000000000000000000070700000000000000000000000000000000000000000000000000000000000000000000000000000000000000000000000000000000000000000000000000000700000000000000000000000000000000000000000000000000000000000000000000000000000000000000000000000000000000
310
00000007000000000000000000000000000000000000000000000000000000000000000000000000000000000000000000000000000000000000000000000007070000000000000000000000000000000000000000000000000000000000000000000000000000000000000000000000000000000000000000000000000000
310
07000000000000070707070707070707070707070707070707070707000000000000000000000000000000000000000000000000000000000700000000000000000000000000000000000000000000000000000000000000000000000000000000000000000000000000000000000000000000000707000000000000000000
310
00000000000000000000000000000000000000000000000000000000000000000000000000000000000000000000000000000000000700000000070507000000000000000000000000000000000000000707070707070700000505000000000000000000000000000000000000070000000000000000000000000000000000
310
00000000000000000000000000000000000000000000000000000000000000000000000000000000000007070000000000000000000000000000000000000000000000000000000000000000000000000000000000000000000000000000000000000000000000000000070000000005050000000000000000000000050505
310
05050505050505050505050507000500050505000000000000000000000000000000000700000000000000000000000000000000000000000000000000000000000000000000000000000000000000000000000000000000000000000000000707000000000000000000000000000000000000000000000000000000000000
310
00000000000000000000000000000000000000000000000000000000000000000700000000070707070707070707070707070707070707070707070707070707070700050505000500000000000000000000000000000000070000000000000000000000000000000000000000000000000000000000000000000000000000
310
00000000000000000000000000000000000000000007070000000000000000000000000000000000000000000000000000000000000000000000000000000000000000000000000000000000000000000000000000070000000007070707070707070707070707050505050505050505050505050505070005000500050000
310
00000000000000000000000000000700000000000000000000000000000000000000000000000000000000000000000000000000000000000000000000000000000000000000000000000707070000000000000000000000000000000000000000000000000000000000000000000000000000000000000000000000000000
310
00000000000000000000070700000000050500000000000000000000000505050505050505050505050505050700000500050500000000000000000000000000000000070000000000000000000000000000000000000000000000000000000000000000000000000000000000000000000000000000000000000000000000
310
07000700000000000000000000000000000000000000000000000000000000000000000000000000000000000000000000000000000000000000000000000007000000000007070707070000000000000000000000000000000707070707070707000000050500000000000000000000000000000000000007000000000000
310
00000000000000000000000000000000000000000000000000000000000000000000000000000000000000000000000000000000000700070000000000000000000000000000000000000000000000000000000000000000000000000000000000000000000000000000000000000000000000000700000000000000000007
310
07070707070707070707070707070707000000000000000000000000000000000000000000000000000000000000070000000000000000000000000000000000000000000000000000000000000000000000000000000000000000000000000000000000000000000000070007070707070707070707070707070707070707
310
07070707070707070707070707070707070707070707070707070707070707070707070707070707070707000000000000000000000000000000000000000000000000000000000000000000000000000000000000000000000000000000000000000007000000000000000000000000000000000000000000000000000000
310
00000000000000000000000000000000000000000000000000000000000000000707070707070707070707070707070707070707070707070707070707070707070707070707070707070707070707070707070707070707070707070707070707070707070707070707070707070707070707070707070707070707070707
310
07070707070707070707070707070707070707070707070707070000000000000000000000000000000000000000000000000000000000000000000000000000000000000000000000000000000000000000000000000000000000000000000000000000000000000000000000000000000000000000000000000000000000
310
000000000000000000000000000000000000000000000000000000000000000000000000000000000000000000000000000000000000000000000000000000000000000000000000000000000000000000000000000000000000000000000000000000000000000000000000
  0
ENDSEC
  0
EOF
